Cifras e Tablaturas
Cifras Cancelar Versão de Impressão
cifras

Frank Iero And The Patience - No Fun Club

fixar na tela  
Exibindo: vídeo-aula ver clipes redimensionar

Tom:

  
Intro 
e|---------------------------------------------------------------------------| 
B|---------------------------------------------------------------------------| 
G|---------------------------------------------------------------------------| 
D|--6--6-4------------------6-6-6-4------------------------------------------| 
A|---------6--6-4-----4-------------6-6-6-4-------4--------------------------| 
E|----------------7-7---4-------------------7-7-7---4------------------------| 

e|---------------------------------------------------------------------------| 
B|---------------------------------------------------------------------------| 
G|---------------------------------------------------------------------------| 
D|--6-6-6-4--------------------6-6-6-4---------------------------------------| 
A|---------6-6-6-4-------4-------------6-6-6-4-------4-----------------------| 
E|-----------------7-7-7---4-------------------7-7-7---4---------------------| 
Get away 

e|---------------------------------------------------------------------------| 
B|---------------------------------------------------------------------------| 
G|---------------------------------------------------------------------------| 
D|--6-6-6-4--------------------6-6-6-4--------------------6-6----------------| 
A|---------6-6-6-4-------4-------------6-6-6-4-------4----6-6----------------| 
E|-----------------7-7-7---4-------------------7-7-7---4--4-4----------------| 

Verse 
e|-----------------|-----------------|---------------------------------------| 
B|-----------------|-----------------|---------------------------------------| 
G|-----------------|-----------------|---------------------------------------| 
D|-6-6-6-6-6-6-6-6-|-6-6-6-6-6-6-6-6-|-6-6-4---4-----------------------------| 
A|-6-6-6-6-6-6-6-6-|-6-6-6-6-6-6-6-6-|-------6-------------------------------| 
E|-4-4-4-4-4-4-4-4-|-4-4-4-4-4-4-4-4-|---------------------------------------| 
PM . . . . . .       . . . . . . . . 
I don't wanna have a sense of style, and I don't have the strength to act cool 

e|-----------------|-----------------|-----------------|---------------------| 
B|-----------------|-----------------|-----------------|---------------------| 
G|-----------------|-----------------|-----------------|---------------------| 
D|-6-6-6-6-6-6-6-6-|-6-6-6-6-6-6-6-6-|-6-6-6-6-6-6-6-6-|---------------------| 
A|-6-6-6-6-6-6-6-6-|-6-6-6-6-6-6-6-6-|-6-6-6-6-6-6-6-6-|--//pickslide//------| 
E|-4-4-4-4-4-4-4-4-|-4-4-4-4-4-4-4-4-|-4-4-4-4-4-4-4-4-|---------------------| 
PM . . . . . .       . . . . . .       . . . . . . 
I just wanna be what the fuhk I wanna be, 
pretending to give a shit makes my stomach sick 

Chorus 
e|-----------------|-----------------|-----------------|---------------------| 
B|-----------------|-----------------|-----------------|---------------------| 
G|-----------------|-----------------|-----------------|---------------------| 
D|-6-6-6-6-6-6-6-6-|-6-6-6-6-6-6-6-6-|-8-8-8-8-8-8-8-8-|-8-8-8-8-8-8-8-8-----| 
A|-6-6-6-6-6-6-6-6-|-6-6-6-6-6-6-6-6-|-8-8-8-8-8-8-8-8-|-8-8-8-8-8-8-8-8-----| 
E|-4-4-4-4-4-4-4-4-|-4-4-4-4-4-4-4-4-|-6-6-6-6-6-6-6-6-|-6-6-6-6-6-6-6-6-----| 
I'm no fuhking fun, I don't want your fun 
e|-------------------------|-------------------------|-----------------------| 
B|-------------------------|-------------------------|-----------------------| 
G|-------------------------|-------------------------|-----------------------| 
D|-12-12-12-12-12-12-12-12-|-12-12-12-12-12-12-12-12-|-6-6-6-6-6-6-6-6-------| 
A|-12-12-12-12-12-12-12-12-|-12-12-12-12-12-12-12-12-|-6-6-6-6-6-6-6-6-------| 
E|-10-10-10-10-10-10-10-10-|-10-10-10-10-10-10-10-10-|-4-4-4-4-4-4-4-4-------| 
I'm not having fun, I don't want your fun 

e|-----------------|---------------------------------------------------------| 
B|-----------------|---------------------------------------------------------| 
G|-----------------|---------------------------------------------------------| 
D|-6-6-6-6-6-6-6-6-|---------------------------------------------------------| 
A|-6-6-6-6-6-6-6-6-|---------------------------------------------------------| 
E|-4-4-4-4-4-4-4-4-|---------------------------------------------------------| 

e|---------------------------------------------------------------------------| 
B|---------------------------------------------------------------------------| 
G|---------------------------------------------------------------------------| 
D|--6-6-6-4--------------------6-6-6-4---------------------------------------| 
A|---------6-6-6-4-------4-------------6-6-6-4-------4-----------------------| 
E|-----------------7-7-7---4-------------------7-7-7---4---------------------| 

e|---------------------------------------------------------------------------| 
B|---------------------------------------------------------------------------| 
G|---------------------------------------------------------------------------| 
D|--6-6-6-4--------------------6-6-6-4--------------------6-6----------------| 
A|---------6-6-6-4-------4-------------6-6-6-4-------4----6-6----------------| 
E|-----------------7-7-7---4-------------------7-7-7---4--4-4----------------| 

Verse 
e|-----------------|-----------------|---------------------------------------| 
B|-----------------|-----------------|---------------------------------------| 
G|-----------------|-----------------|---------------------------------------| 
D|-6-6-6/9-6-6-6/9-|-9-9-9/6-6-6-6-6-|-6-6-4---4-----------------------------| 
A|-6-6-6/9-6-6-6/9-|-9-9-9/6-6-6-6-6-|-------6-------------------------------| 
E|-4-4-4/7-4-4-4/7-|-7-7-7/4-4-4-4-4-|---------------------------------------| 
PM . . . . . .       . . . . . . . . 
I just wanna have some peace and quiet, and I just want a place to be alone 
e|-----------------|-----------------|-----------------|---------------------| 
B|-----------------|-----------------|-----------------|---------------------| 
G|-----------------|-----------------|-----------------|---------------------| 
D|-6-6-6/9-6-6-6/9-|-9-9-9/6-6-6-6-6-|-6-6-6-6-6-6-6-6-|---------------------| 
A|-6-6-6/9-6-6-6/9-|-9-9-9/6-6-6-6-6-|-6-6-6-6-6-6-6-6-|---------------------| 
E|-4-4-4/7-4-4-4/7-|-7-7-7/4-4-4-4-4-|-4-4-4-4-4-4-4-4-|---------------------| 
PM . . . . . .       . . . . . . . . 
You can keep your friends and their fuhkin shitty grins, 
if I have to stay awake I'm gonna fuhkin puke 

Chorus 
e|-----------------|-----------------|-----------------|---------------------| 
B|-----------------|-----------------|-----------------|---------------------| 
G|-----------------|-----------------|-----------------|---------------------| 
D|-6-6-6-6-6-6-6-6-|-6-6-6-6-6-6-6-6-|-8-8-8-8-8-8-8-8-|-8-8-8-8-8-8-8-8-----| 
A|-6-6-6-6-6-6-6-6-|-6-6-6-6-6-6-6-6-|-8-8-8-8-8-8-8-8-|-8-8-8-8-8-8-8-8-----| 
E|-4-4-4-4-4-4-4-4-|-4-4-4-4-4-4-4-4-|-6-6-6-6-6-6-6-6-|-6-6-6-6-6-6-6-6-----| 
I'm no fuhking fun, I don't want your fun 
e|-------------------------|-------------------------|-----------------------| 
B|-------------------------|-------------------------|-----------------------| 
G|-------------------------|-------------------------|-----------------------| 
D|-12-12-12-12-12-12-12-12-|-12-12-12-12-12-12-12-12-|-6-6-6-6-6-6-6-6-------| 
A|-12-12-12-12-12-12-12-12-|-12-12-12-12-12-12-12-12-|-6-6-6-6-6-6-6-6-------| 
E|-10-10-10-10-10-10-10-10-|-10-10-10-10-10-10-10-10-|-4-4-4-4-4-4-4-4-------| 
I'm not having fun, I don't want your fun 

Outro 
e|---------------------------------------------------------------------------| 
B|---------------------------------------------------------------------------| 
G|---------------------------------------------------------------------------| 
D|--6--6--6--6~--------------------------------------------------------------| 
A|--6--6--6--6~--------------------------------------------------------------| 
E|--4--4--4--4~--------------------------------------------------------------| 



************************************ 

| PM  Palm mute 
| /   Slide up 
| ~   Vibrato 
  
************************************ 
  

top 5 | frank iero and the patience
top rock'n roll
Outras músicas do artista letras do(a) Frank Iero And The Patience
Top cifras »Top artistas »
Petaxxon Comunicação Online
Cifras.com.br - Melhor e mais completo site de cifras e tablaturas do Brasil
Mais de 1 milhão de acordes de músicas cadastradas desde 2003
As informações contidas no nosso site são colaborações de seus usuários e podem conter erros, sendo assim, não nos responsabilizamos sobre nenhuma destas.
close
menos
mais
close
Cor dos acordes:

Cor da letra:

 

save
close
close
 
redimensionar