Cifras e Tablaturas
Frank Iero And The Patience

Frank Iero And The Patience

World Destroyer

Cifras Cancelar Versão de Impressão
cifras

Frank Iero And The Patience - World Destroyer

fixar na tela  
Exibindo: vídeo-aula ver clipes redimensionar

Tom:

  
Intro 

Guitar 1 
eb|----------------------------------------------| 
Bb|----------------------------------------------| 
Gb|----------------------------------------------| 
Db|----------------------------------------------| 
Ab|---------5h7-7-7------------------------------| 
Eb|-0-0-0-0-0-0-0-0------------------------------| X12 

Guitar 2 (Comes in after guitar 1 plays 4 times) 
eb|-12----12---12---12---10--10--10--10--8--8--8--8--7--7--7--7--| 
Bb|----12---12---12---12---8---8---8---8--6--6--6--6--5--5--5--5-| 
Gb|--------------------------------------------------------------| 
Db|--------------------------------------------------------------|  
Ab|--------------------------------------------------------------| 
Eb|--------------------------------------------------------------| X1 

Verse 
eb|-----------------------------------------------| 
Bb|-5--5-5-5-5-5h7-4--4-4-4-4---------------------| 
Gb|-5--5-5-5-5-5h7-4--4-4-4-4---------------------| 
Db|-5--5-5-5-5-5h7-4--4-4-4-4---------------------|  
Ab|-----------------------------------------------| 
Eb|-----------------------------------------------| 

eb|----------------------------------------------| 
Bb|----------------------------------------------| 
Gb|----------------------------------------------| 
Db|----------------------------------------------| 
Ab|---------5h7-7-7------------------------------| 
Eb|-0-0-0-0-0-0-0-0------------------------------| X4 

eb|-----------------------------------------------| 
Bb|-5--5-5-5-5-5h7-4--4-4-4-4---------------------| 
Gb|-5--5-5-5-5-5h7-4--4-4-4-4---------------------| 
Db|-5--5-5-5-5-5h7-4--4-4-4-4---------------------|  
Ab|-----------------------------------------------| 
Eb|-----------------------------------------------| 

eb|----------------------------------------------| 
Bb|----------------------------------------------| 
Gb|----------------------------------------------| 
Db|----------------------------------------------| 
Ab|---------5h7-7-7------------------------------| 
Eb|-0-0-0-0-0-0-0-0------------------------------| X4 

Chorus 
eb|----------------------------------------------------------------------------------| 
Bb|----------------------------------------------------------------------------------| 
Gb|----------------------------------------------------------------------------------| 
Db|-7-7-7-7-7-7-7-7-7-7-7-7-9-9-9-9-10-10-10-10-10-10-10-10-10-10-10-10-10-9-9-9-9---|  
Ab|-7-7-7-7-7-7-7-7-7-7-7-7-9-9-9-9-10-10-10-10-10-10-10-10-10-10-10-10-10-9-9-9-9---| 
Eb|-5-5-5-5-5-5-5-5-5-5-5-5-7-7-7-7-8--8--8--8--8--8--8--8--8--8--8--8--8--7-7-7-7---| 

eb|-------------------------------------------------------------| 
Bb|----------------------------------------------5t-------------| 
Gb|------------------------------------------5-7----------------| 
Db|-5-5-5-5-----4-4-4-4-----2-2-2-2-2-2-2-2---------------------|  
Ab|-5-5-5-5-----4-4-4-4-----2-2-2-2-2-2-2-2---------------------| 
Eb|-3-3-3-3/17b-2-2-2-2/17b-0-0-0-0-0-0-0-0---------------------| 

eb|----------------------------------------------------------------------| 
Bb|----------------------------------------------------------------------| 
Gb|----------------------------------------------------------------------| 
Db|-7-7-7-7-7-7-7-7-7-7-7-7-4-4-4-4-5-5-5-5-5-5-5-5-4-4-4-4-4-4-4-4------|  
Ab|-7-7-7-7-7-7-7-7-7-7-7-7-4-4-4-4-5-5-5-5-5-5-5-5-4-4-4-4-4-4-4-4------| 
Eb|-5-5-5-5-5-5-5-5-5-5-5-5-2-2-2-2-3-3-3-3-3-3-3-3-2-2-2-2-2-2-2-2------| 

eb|----------------------------------------------| 
Bb|----------------------------------------------| 
Gb|----------------------------------------------| 
Db|----------------------------------------------| 
Ab|---------5h7-7-7------------------------------| 
Eb|-0-0-0-0-0-0-0-0------------------------------| X4 

eb|-------------------------------------------------------------------------------------------------| 
Bb|-------------------------------------------------------------------------------------------------| 
Gb|-12-12-12-12-12-12-12-12-12-12-12-12-16-16-16-16-14-14-14-14-11-11-11-11-11-11-11-11-5-7---------| 
Db|-X--X--X--X--X--X--X--X--X--X--X--X--X--X--X--X--X--X--X--X--X--X--X--X--X--X--X--X--X-X---------|  
Ab|-10-10-10-10-10-10-10-10-10-10-10-10-14-14-14-14-12-12-12-12-9--9--9--9--9--9--9--9--3-5---------| 
Eb|-------------------------------------------------------------------------------------------------| 

eb|------------------------------------------| 
Bb|------------------------------------------| 
Gb|------------------------------------------| 
Db|------------------------------------------| 
Ab|-----5h7-7-7------------------------------| 
Eb|-0-0-0-0-0-0------------------------------| X4 

eb|--------------------------------------------------------------------------------------------------| 
Bb|--------------------------------------------------------------------------------------------------| 
Gb|-12-12-12-12-12-12-12-12-12-12-12-12-16-16-16-16-18-18-18-18-14-14-14-14-14-14-14-14--7-9---------| 
Db|-X--X--X--X--X--X--X--X--X--X--X--X--X--X--X--X--X--X--X--X--X--X--X--X--X--X--X--X---X-X--2------|  
Ab|-10-10-10-10-10-10-10-10-10-10-10-10-14-14-14-14-16-16-16-16-12-12-12-12-12-12-12-12--5-7--2------| 
Eb|-------------------------------------------------------------------------------------------0------| 

eb|----------------------------------------------------------------------------------| 
Bb|----------------------------------------------------------------------------------| 
Gb|----------------------------------------------------------------------------------| 
Db|-7-7-7-7-7-7-7-7-7-7-7-7-9-9-9-9-10-10-10-10-10-10-10-10-10-10-10-10-10-9-9-9-9---|  
Ab|-7-7-7-7-7-7-7-7-7-7-7-7-9-9-9-9-10-10-10-10-10-10-10-10-10-10-10-10-10-9-9-9-9---| 
Eb|-5-5-5-5-5-5-5-5-5-5-5-5-7-7-7-7-8--8--8--8--8--8--8--8--8--8--8--8--8--7-7-7-7---| 

eb|-------------------------------------------------------------| 
Bb|----------------------------------------------5t-------------| 
Gb|------------------------------------------5-7----------------| 
Db|-5-5-5-5-----4-4-4-4-----2-2-2-2-2-2-2-2---------------------|  
Ab|-5-5-5-5-----4-4-4-4-----2-2-2-2-2-2-2-2---------------------| 
Eb|-3-3-3-3/17b-2-2-2-2/17b-0-0-0-0-0-0-0-0---------------------| 

eb|----------------------------------------------------------------------| 
Bb|----------------------------------------------------------------------| 
Gb|----------------------------------------------------------------------| 
Db|-7-7-7-7-7-7-7-7-7-7-7-7-4-4-4-4-5-5-5-5-5-5-5-5-4-4-4-4-4-4-4-4------|  
Ab|-7-7-7-7-7-7-7-7-7-7-7-7-4-4-4-4-5-5-5-5-5-5-5-5-4-4-4-4-4-4-4-4------| 
Eb|-5-5-5-5-5-5-5-5-5-5-5-5-2-2-2-2-3-3-3-3-3-3-3-3-2-2-2-2-2-2-2-2------| 

Bridge solo thing 
eb|-------------------------------------------------------------------| 
Bb|-------------------------------------------------------------------| 
Gb|-9-9-9-9-9-9-9-9-7-7-7-7-7-7-7-7-5-5-5-5-5-5-5-5-4-4-4-4-4-4-4-4---| 
Db|-X-X-X-X-X-X-X-X-X-X-X-X-X-X-X-X-X-X-X-X-X-X-X-X-X-X-X-X-X-X-X-X---| 
Ab|-7-7-7-7-7-7-7-7-5-5-5-5-5-5-5-5-3-3-3-3-3-3-3-3-2-2-2-2-2-2-2-2---| 
Eb|-------------------------------------------------------------------| 

eb|-----------------------------------------------------------------------------| 
Bb|-----------------------------------------------------------------------------| 
Gb|-9-9-9-9-9-9-12-11-7-7-7-7-7-7-12-11----5-5-5-5-5-5-12-11--4-4-4-4-4-4-4-4---| 
Db|-X-X-X-X-X-X-X--X--X-X-X-X-X-X-X--X-----X-X-X-X-X-X-X--X---X-X-X-X-X-X-X-X---| 
Ab|-7-7-7-7-7-7-10-9--5-5-5-5-5-5-10-9-----3-3-3-3-3-3-10-9---2-2-2-2-2-2-2-2---| 
Eb|-----------------------------------------------------------------------------| 

eb|-----------------------------------------------------------------------------------| 
Bb|-12--12--12-12-12-12-12------------------------9--9--9--9-9-9-9-7-7-7--7-9--9--9---| 
Gb|-12--12--12-12-12-12-12-12--12--12--12-12-12-9-9--9--9--9-9-9-9-7-7-7--7-9--9--9---| 
Db|-12--12--12-12-12-12-12-12--12--12--12-12-12-9-9--9--9--9-9-9-9-7-7-7--7-9--9--9---| 
Ab|-10--10--10-10-10-10-10-12--12--12--12-12-12-9-7--7--7--7-7-7-7-5-5-5--5-7--7--7---| 
Eb|------------------------10--10--10--10-10-10-7-------------------------------------| 

eb|----------------------------------------------X-X-X-X--------------------------| 
Bb|-12--12--12-12-12-12-12-----------------------X-X-X-X--------12--------12-----| 
Gb|-12--12--12-12-12-12-12-12--12--12--12-12-12--X-X-X-X-----------12--------12--| 
Db|-12--12--12-12-12-12-12-12--12--12--12-12-12--X-X-X-X-------------------------| 
Ab|-10--10--10-10-10-10-10-12--12--12--12-12-12--X-X-X-X--10-10-------9-9--------| 
Eb|------------------------10--10--10--10-10-10--X-X-X-X-------------------------| 

eb|--------------------------------------------------------------------------| 
Bb|-----9-9-7-9-9-9--5--5--5-5--5-5-5-5h7------------------------------------| 
Gb|-----9-9-7-9-9-9--5--5--5-5--5-5-5-5h7-12--12--12-12-12-12----------------| 
Db|-----9-9-7-9-9-9--5--5--5-5--5-5-5-5h7-12--12--12-12-12-12----------2-----| 
Ab|-7-7-7-7-7-7-7-7-----------------------12--12--12-12-12-12----------2-----| 
Eb|---------------------------------------10--10--10-10-10-10--8h10-8--0-----| 

Transition to ending 
eb|----------------------------------------------| 
Bb|----------------------------------------------| 
Gb|----------------------------------------------| 
Db|----------------------------------------------| 
Ab|---------5h7-7-7------------------------------| 
Eb|-0-0-0-0-0-0-0-0------------------------------| X4 

Ending 
eb|-----------------------------------------------------------------------------| 
Bb|-----------------------------------------------------------------------------| 
Gb|-----------------------------------------------------------------------------| 
Db|-10-10-10-10-10-10-10-10-10-10-10-10-12-12-12-12-9-9-9-9-7-7-7-7-5-5-5-5-4-2-|  
Ab|-10-10-10-10-10-10-10-10-10-10-10-10-12-12-12-12-9-9-9-9-7-7-7-7-5-5-5-5-4-2-| 
Eb|-8--8--8--8--8--8--8--8--8--8--8--8--10-10-10-10-7-7-7-7-5-5-5-5-3-3-3-3-2-0-| 

eb|------------------------------------------| 
Bb|------------------------------------------| 
Gb|------------------------------------------| 
Db|------------------------------------------| 
Ab|-----5h7-7-7------------------------------| 
Eb|-0-0-0-0-0-0------------------------------| X4 

eb|-----------------------------------------------------------------------------| 
Bb|-----------------------------------------------------------------------------| 
Gb|-----------------------------------------------------------------------------| 
Db|-10-10-10-10-10-10-10-10-10-10-10-10-12-12-12-12-9-9-9-9-7-7-7-7-5-5-5-5-4-2-|  
Ab|-10-10-10-10-10-10-10-10-10-10-10-10-12-12-12-12-9-9-9-9-7-7-7-7-5-5-5-5-4-2-| 
Eb|-8--8--8--8--8--8--8--8--8--8--8--8--10-10-10-10-7-7-7-7-5-5-5-5-3-3-3-3-2-0-| 

eb|--------------------------------------------------------------------------------------------------| 
Bb|--------------------------------------------------------------------------------------------------| 
Gb|-9-9-9-9-9-9-9-9--11-11-11-11-11-11-11-11-12-12-12-12-12-12-12-12-14-14-14-14-14-14-14-14---------| 
Db|-X-X-X-X-X-X-X-X--X--X--X--X--X--X--X--X--X--X--X--X--X--X--X--X--X--X--X--X--X--X--X--X----------|  
Ab|-7-7-7-7-7-7-7-7--9--9--9--9--9--9--9--9--10-10-10-10-10-10-10-10-12-12-12-12-12-12-12-12---------| 
Eb|--------------------------------------------------------------------------------------------------| 



************************************ 
| / slide up 
| b bend 
| x Dead note 
| h hammer-on 
| t tremolo picking 

************************************ 
  

top 5 | frank iero and the patience
top rock'n roll
Outras músicas do artista letras do(a) Frank Iero And The Patience
Top cifras »Top artistas »
Petaxxon Comunicação Online
Cifras.com.br - Melhor e mais completo site de cifras e tablaturas do Brasil
Mais de 1 milhão de acordes de músicas cadastradas desde 2003
As informações contidas no nosso site são colaborações de seus usuários e podem conter erros, sendo assim, não nos responsabilizamos sobre nenhuma destas.
close
menos
mais
close
Cor dos acordes:

Cor da letra:

 

save
close
close
 
redimensionar