Cifras e Tablaturas
Frank Iero And The Patience

Frank Iero And The Patience

You Are My Sunshine

Cifras Cancelar Versão de Impressão
cifras

Frank Iero And The Patience - You Are My Sunshine

fixar na tela  
Exibindo: vídeo-aula ver clipes redimensionar
  
Intro 
(This can also be played an octave up) 

D#|---------------------------------------------------------------------------| 
A#|---------------------------------------------------------------------------| 
F#|---------------------------------------------------------------------------| 
C#|---------------------------------------------------------------------------| 
G#|---------------------------------------------------------------------------| 
D#|-5~------------------------------------------------------------------------| 

D#|---------------------------------------------------------------------------| 
A#|---------------------------------------------------------------------------| 
F#|---------------------------------------------------------------------------| 
C#|---------------------------------------------------------------------------| 
G#|---2-4--2---2-----2-5--4-2-4-----------------------------------------------| 
D#|-5--------5---5------------------------------------------------------------| 

D#|---------------------------------------------------------------------------| 
A#|---------------------------------------------------------------------------| 
F#|---------------------------------------------------------------------------| 
C#|---------------------------------------------------------------------------| 
G#|---2-4-----2------5--2-----------------------------------------------------| 
D#|-5-------5---5-5--------5---5----------------------------------------------| 

D#|------5--------------------------------------------------------------------| 
A#|------5-------------8------7------5----------------------------------------| 
F#|------6--7p6-----/9---9--7---7--6---6--4-4h6p4-----------------------------| 
C#|------7------7-------------------------------------------------------------| 
G#|---7-----------------------------------------------------------------------| 
D#|-5-------------------------------------------------------------------------| 

D#|------5--------------------------------------------------------------------| 
A#|------5--------------------------------------------------------------------| 
F#|------6--7p6----6--4--7--9-9-----------------------------------------------| 
C#|------7------7--6--4--7--9-9--7--------------------------------------------| 
G#|---7------------4--2--5--7-7--7--------------------------------------------| 
D#|-5----------------------------5--------------------------------------------| 

Verse 
D#|---------------------------------------------------------------------------| 
A#|---------------------------------------------------------------------------| 
F#|-6--7--6--7--6--6--4--7-----6----------------------------------------------| 
C#|-7--7--7--7--7--6--4--7-----7----------------------------------------------| 
G#|-7--5--7--5--7--4--2--5-----7----------------------------------------------| 
D#|-5-----5-----5-----------3--5----------------------------------------------| 

Chorus 
D#|---------------------------------------------------------------------------| 
A#|---------------------------------------------------------------------------| 
F#|-6--7--6--7--6--6--4-------------------------------------------------------| 
C#|-7--7--7--7--7--6--4--7----------------------------------------------------| 
G#|-7--5--7--5--7--4--2--7----------------------------------------------------| 
D#|-5-----5-----5--------5----------------------------------------------------| 

D#|--------------------------------------------------------------------------------------| 
A#|-----------------------------------------7-7-10br-------------------------------------| 
F#|-------------------------/7-7--6---6~br------------11-9-9-11-9br------6br-7-6---------| 
C#|-7-9-11-11~--9-7-9*br-7----------9--------------------------------7-9---------9-7-----| 
G#|----------------------------------------------------------------------------------9-7-| 
D#|--------------------------------------------------------------------------------------| 

D#|---------------------------------------------------------------------------| 
A#|---------------------------------------------------------------------------| 
F#|-----6br-7-6------7---7-7--------------------------------------------------| 
C#|-7-9---------9-7--7---7-7--7-----------------------------------------------| 
G#|------------------5---5-5--7-----------------------------------------------| 
D#|---------------------------5--3/5-5----------------------------------------| 

Post Chorus 
D#|------5--------------------------------------------------------------------| 
A#|------5--------------------------------------------------------------------| 
F#|------6--7p6---------------------------------------------------------------| 
C#|------7------7-------------------------------------------------------------| 
G#|---7-------------/9-/9-7---------------------------------------------------| 
D#|-5------------------------7-9-7-5-8br--------------------------------------| 

D#|------5--------------------------------------------------------------------| 
A#|------5--------------------------------------------------------------------| 
F#|------6--7p6--------9-------9----------------------------------------------| 
C#|------7------7--/11---11--9----6-7~----------------------------------------| 
G#|---7-----------------------------------------------------------------------| 
D#|-5-------------------------------------------------------------------------| 

Verse 
D#|---------------------------------------------------------------------------| 
A#|---------------------------------------------------------------------------| 
F#|-6--7--6--7--6--6--4--7-----6----------------------------------------------| 
C#|-7--7--7--7--7--6--4--7-----7----------------------------------------------| 
G#|-7--5--7--5--7--4--2--5-----7----------------------------------------------| 
D#|-5-----5-----5-----------3--5----------------------------------------------| 

D#|---------------------------------------------------------------------------| 
A#|---------------------------------------------------------------------------| 
F#|-6--7--6--7--6--6--4-------------------------------------------------------| 
C#|-7--7--7--7--7--6--4--7----------------------------------------------------| 
G#|-7--5--7--5--7--4--2--7----------------------------------------------------| 
D#|-5-----5-----5--------5----------------------------------------------------| 

(Divebomb if you have a tremolo bar if not just let it ring and feedback) 

Solo 
D#|-------------------------------------------------------------------------------------------------------| 
A#|-----------------------------------------------------------/7-7-10-------------------------------------| 
F#|----------------------------6-7-9b11-9b11-9-7-9-11-9-7-6-----------/11-9-9-11-9------6br-6-6-----------| 
C#|-7-9-11-11~--9-7-9*br-7--/7------------------------------------------------------7-9---------9-7-------| 
G#|-------------------------------------------------------------------------------------------------9-7---| 
D#|-------------------------------------------------------------------------------------------------------| 

D#|----------------------------------------14-14--14-17-17------------------------------------------------| 
A#|-14--14-12-14-14-12-14b16r14-12-14------------------------17-17--15-14---------10-10-12b14r12-10-12-10-| 
F#|-----------------------------------14----------------------------------/11-11--------------------------| 
C#|-------------------------------------------------------------------------------------------------------| 
G#|-------------------------------------------------------------------------------------------------------| 
D#|-------------------------------------------------------------------------------------------------------| 

D#|---------------------------------------------------------------------------| 
A#|---------------------------------------------------------------------------| 
F#|-----6-6-7-----7-6-------6-6-7------7-6------6-6-7-6-----------------------| 
C#|-7-9-------9-7-------7-9--------9-7------7-9---------9-7-------------------| 
G#|---------------------------------------------------------9--7--------------| 
D#|---------------------------------------------------------------------------| 

************************************ 

| h   Hammer-on 
| p   Pull-off 
| r   Release 
| b   Bend 
| br  Bend release 
| /   Slide up 
| ~   Vibrato 

************************************ 
  

top 5 | frank iero and the patience
top rock'n roll
Outras músicas do artista letras do(a) Frank Iero And The Patience
Top cifras »Top artistas »
Petaxxon Comunicação Online
Cifras.com.br - Melhor e mais completo site de cifras e tablaturas do Brasil
Mais de 1 milhão de acordes de músicas cadastradas desde 2003
As informações contidas no nosso site são colaborações de seus usuários e podem conter erros, sendo assim, não nos responsabilizamos sobre nenhuma destas.
close
menos
mais
close
Cor dos acordes:

Cor da letra:

 

save
close
close
 
redimensionar