Cifras e Tablaturas
Frank Zappa

Frank Zappa

Bamboozled By Love

Cifras Cancelar Versão de Impressão
cifras

Frank Zappa - Bamboozled By Love

fixar na tela  
Exibindo: vídeo-aula ver clipes redimensionar

Tom:

  
Intro 

e|---------------------------------------------------| 
B|---------------------------------------------------| 
G|---------------------------------------------------| 
D|---------------/5----------------------------------| 
A|-----------0-0----3-0--3----------0-0--/5-3-0--3---| 
E|--0--3--5----------------0--3--5-------------------| 

e|---------------------------------------------------| 
B|---------------------------------------------------| 
G|---------------------------------------------------| 
D|---------------/5----------------------------------| 
A|-----------0-0----3-0--3----------0-0--/5-3-0--3---| 
E|--0--3--5----------------0--3--5-------------------| 

Verse 

e|---------------------------------------------------| 
B|---------------------------------------------------| 
G|---------------------------------------------------| 
D|---------------/5----------------------------------| 
A|-----------0-0----3-0--3----------0-0--/5-3-0--3---| 
E|--0--3--5----------------0--3--5-------------------| 

e|---------------------------------------------| 
B|---------------------------------------------| 
G|--------------------x5~~~-5---------5b-------| 
D|--------------5b------------7-5--/7----5b----| 
A|-----------x---------------------------------| 
E|--0--3--5--x---------------------------------| 

e|---------------------------------------------------| 
B|---------------------------------------------------| 
G|---------------------------------------------------| 
D|---------------/5----------------------------------| 
A|-----------0-0----3-0--3----------0-0--/5-3-0--3---| 
E|--0--3--5----------------0--3--5-------------------| 

e|---------------------------------------------------------| 
B|---------------------------------------------------------| 
G|--------------------x5~~~-5-----5-5-----5-5--------------| 
D|--------------5b------------7-5-----7-5-----7-5--5b~~~---| 
A|-----------x---------------------------------------------| 
E|--0--3--5--x---------------------------------------------| 

e|---------------------------------------------------| 
B|---------------------------------------------------| 
G|---------------------------------------------------| 
D|---------------/5----------------------------------| 
A|-----------0-0----3-0--3----------0-0--/5-3-0--3---| 
E|--0--3--5----------------0--3--5-------------------| 

e|------------------------------------------------------| 
B|------------------------------------------------------| 
G|--------------12/14~~-12/14~-12-----------------------| 
D|--------------------------------14-12-10--------------| 
A|-----------x-----------------------------12-10-12~~~--| 
E|--0--3--5--x------------------------------------------| 

e|---------------------------------------------------| 
B|---------------------------------------------------| 
G|---------------------------------------------------| 
D|---------------/5----------------------------------| 
A|-----------0-0----3-0--3----------0-0--/5-3-0--3---| 
E|--0--3--5----------------0--3--5-------------------| 

e|---------------------------------------------------| 
B|---------------------------------------------------| 
G|---------------------------------------------------| 
D|---------------/5----------------------------------| 
A|-----------0-0----3-0--3----------0-0--/5-3-0--3---| 
E|--0--3--5----------------0--3--5-------------------| 

e|---------------------------------------------------| 
B|---------------------------------------------------| 
G|---------------------------------------------------| 
D|---------------/5----------------------------------| 
A|-----------0-0----3-0--3----------0-0--/5-3-0--3---| 
E|--0--3--5----------------0--3--5-------------------| 

e|------------------------------------------------------------------| 
B|------------------------------------------------------------------| 
G|-------------------------/5~~-------/5-/5~~-----------------------| 
D|---------------/5-------------7-5-0--------7-5-0------------------| 
A|-----------0-0----3-0----------------------------5-3-0------------| 
E|--0--3--5----------------------------------------------3-0-3/5~---| 

e|---------------------------------------------------| 
B|---------------------------------------------------| 
G|---------------------------------------------------| 
D|---------------/5----------------------------------| 
A|-----------0-0----3-0--3----------0-0--/5-3-0--3---| 
E|--0--3--5----------------0--3--5-------------------| 

e|-----------------------------------------| 
B|-----------------------------------------| 
G|-------------------5/7-7~----------------| 
D|-------------5/7~---------7-5-0-5h7~~~---| 
A|-----------x-----------------------------| 
E|--0--3--5--x-----------------------------| 

Bridge 

"I ain't the type fo' begging"      "I ain't the type to please" 

e|----------------------------------------------------------------| 
B|----------------------------------------------------------------| 
G|------------------------------17\-------------------------------| 
D|------------------------------17\-------------------------------| 
A|-0--------------------------------------------------------------| 
E|----------------------------------------------------------------| 

          "If she don't change..." "I'm gonna make her bleed" 

e|-12///------------------------------------------------------------| 
B|------------------------------------------------------------------| 
G|------------------------------------------------------------------| 
D|------------------------------------------------------------------| 
A|------------------------------------------------------------------| 
E|------------------------------------------------------------------| 

"She can scream and holler" No more guitar until verse 

e|-19/--------------------------------------------------| 
B|------------------------------------------------------| 
G|------------------------------------------------------| 
D|------------------------------------------------------| 
A|------------------------------------------------------| 
E|------------------------------------------------------| 

Verse 

Play this and vary the slide riffs 

e|---------------------------------------------------| 
B|---------------------------------------------------| 
G|---------------------------------------------------| 
D|---------------/5----------------------------------| 
A|-----------0-0----3-0--3----------0-0--/5-3-0--3---| 
E|--0--3--5----------------0--3--5-------------------| 

e|---------------------------------------------| 
B|---------------------------------------------| 
G|--------------------x5~~~-5---------5b-------| 
D|--------------5b------------7-5--/7----5b----| 
A|-----------x---------------------------------| 
E|--0--3--5--x---------------------------------| 

e|---------------------------------------------------| 
B|---------------------------------------------------| 
G|---------------------------------------------------| 
D|---------------/5----------------------------------| 
A|-----------0-0----3-0--3----------0-0--/5-3-0--3---| 
E|--0--3--5----------------0--3--5-------------------| 

e|---------------------------------------------------------| 
B|---------------------------------------------------------| 
G|--------------------x5~~~-5-----5-5-----5-5--------------| 
D|--------------5b------------7-5-----7-5-----7-5--5b~~~---| 
A|-----------x---------------------------------------------| 
E|--0--3--5--x---------------------------------------------| 

e|---------------------------------------------------| 
B|---------------------------------------------------| 
G|---------------------------------------------------| 
D|---------------/5----------------------------------| 
A|-----------0-0----3-0--3----------0-0--/5-3-0--3---| 
E|--0--3--5----------------0--3--5-------------------| 

e|------------------------------------------------------| 
B|------------------------------------------------------| 
G|--------------12/14~~-12/14~-12-----------------------| 
D|--------------------------------14-12-10--------------| 
A|-----------x-----------------------------12-10-12~~~--| 
E|--0--3--5--x------------------------------------------| 

e|---------------------------------------------------| 
B|---------------------------------------------------| 
G|---------------------------------------------------| 
D|---------------/5----------------------------------| 
A|-----------0-0----3-0--3----------0-0--/5-3-0--3---| 
E|--0--3--5----------------0--3--5-------------------| 

e|---------------------------------------------------| 
B|---------------------------------------------------| 
G|---------------------------------------------------| 
D|---------------/5----------------------------------| 
A|-----------0-0----3-0--3----------0-0--/5-3-0--3---| 
E|--0--3--5----------------0--3--5-------------------| 

Solo Vamp Until 4:22 

e|---------------------------------------------------| 
B|---------------------------------------------------| 
G|---------------------------------------------------| 
D|---------------/5----------------------------------| 
A|-----------0-0----3-0--3----------0-0--/5-3-0--3---| 
E|--0--3--5----------------0--3--5-------------------| 

Bridge 

"I ain't the type fo' begging"      "I ain't the type to please" 

e|----------------------------------------------------------------------| 
B|----------------------------------------------------------------------| 
G|------------------------------17\-------------------------------------| 
D|------------------------------17\-------------------------------------| 
A|-0--------------------------------------------------------------------| 
E|----------------------------------------------------------------------| 

          "If she don't change..." "I'm gonna make her bleed" 

e|-12///--------------------------------------------------------------| 
B|--------------------------------------------------------------------| 
G|--------------------------------------------------------------------| 
D|--------------------------------------------------------------------| 
A|--------------------------------------------------------------------| 
E|--------------------------------------------------------------------| 

"She can scream and holler" No more guitar until verse 

e|-19/--------------------------------------------------| 
B|------------------------------------------------------| 
G|------------------------------------------------------| 
D|------------------------------------------------------| 
A|------------------------------------------------------| 
E|------------------------------------------------------| 

Verse 

e|---------------------------------------------------| 
B|---------------------------------------------------| 
G|---------------------------------------------------| 
D|---------------/5----------------------------------| 
A|-----------0-0----3-0--3----------0-0--/5-3-0--3---| 
E|--0--3--5----------------0--3--5-------------------| 

e|---------------------------------------------| 
B|---------------------------------------------| 
G|--------------------x5~~~-5---------5b-------| 
D|--------------5b------------7-5--/7----5b----| 
A|-----------x---------------------------------| 
E|--0--3--5--x---------------------------------| 

e|---------------------------------------------------| 
B|---------------------------------------------------| 
G|---------------------------------------------------| 
D|---------------/5----------------------------------| 
A|-----------0-0----3-0--3----------0-0--/5-3-0--3---| 
E|--0--3--5----------------0--3--5-------------------| 

e|---------------------------------------------| 
B|---------------------------------------------| 
G|--------------------x5~~~-5---------5b-------| 
D|--------------5b------------7-5--/7----5b----| 
A|-----------x---------------------------------| 
E|--0--3--5--x---------------------------------| 

e|---------------------------------------------------| 
B|---------------------------------------------------| 
G|---------------------------------------------------| 
D|---------------/5----------------------------------| 
A|-----------0-0----3-0--3----------0-0--/5-3-0--3---| 
E|--0--3--5----------------0--3--5-------------------| 

e|---------------------------------------------------| 
B|---------------------------------------------------| 
G|---------------------------------------------------| 
D|---------------/5----------------------------------| 
A|-----------0-0----3-0--3----------0-0--/5-3-0--3---| 
E|--0--3--5----------------0--3--5-------------------| 

e|---------------------------------------------------| 
B|---------------------------------------------------| 
G|---------------------------------------------------| 
D|---------------/5----------------------------------| 
A|-----------0-0----3-0--3----------0-0--/5-3-0--3---| 
E|--0--3--5----------------0--3--5-------------------| 

e|-----------------------------------------------------------------| 
B|-----------------------------------------------------------------| 
G|-----------------5-----5/7~~--7~-5~------------5---7-~5----------| 
D|--------------7----7-5--------------7~~-5h7~~~---7------7-5h7~---| 
A|-----------x-----------------------------------------------------| 
E|--0--3--5--x-----------------------------------------------------| 
 
  

top 5 | frank zappa
top rock'n roll
Outras músicas do artista letras do(a) Frank Zappa
Top cifras »Top artistas »
Petaxxon Comunicação Online
Cifras.com.br - Melhor e mais completo site de cifras e tablaturas do Brasil
Mais de 1 milhão de acordes de músicas cadastradas desde 2003
As informações contidas no nosso site são colaborações de seus usuários e podem conter erros, sendo assim, não nos responsabilizamos sobre nenhuma destas.
close
menos
mais
close
Cor dos acordes:

Cor da letra:

 

save
close
close
 
redimensionar