Cifras e Tablaturas
From Autumn To Ashes

From Autumn To Ashes

Chloroform Perfume (ver. 2)

Cifras Cancelar Versão de Impressão Print

From Autumn To Ashes - Chloroform Perfume (ver. 2)

Tom: C

  			standard tuning. you know the deal 
 
VERSE- Timing is weird but listen to it and you should get it 
E ------------------------------------------------------------------ 
B ------0----------------0----------------0----------------0-------0   
G ----0-0-0----------0-----0------------0---0------------0-------0--         
D --9-------9---9>10---------10-------0-------0--------0-------0----  
A 7-----------7--------7--------7-7h9-----------9-9>10-------9------ 
E ------------------------------------------------------------------ 
 
Pre-Chorus ("You said so much...") 
      C     Em 
E ----0-----0 
B ----1-----0 
G ----0-----0 
D ----2-----2 
A ----3-----2 
E ----------0 
 
Chorus ("It's past 3 AM...") 
E ----7------------ 
B ----8-----7-----5 
G ----9-----7-----5 
D ----9-----7-----5 
E ----7-----5-----3 
A ----0------------ 
 
After Solo Thing Chords ("She keeps on asking...") 
E ----0-----------0-----0 
B ----3-----3-----3-----3 
G ----0-----2-----0-----0 
D ----2-----0-----0-----2 
A ----2-----------------0 
E ----0-----2-----3------ 
 
Basic Last Part with Distortion ("She laced her perfume...") 
E ----------------- 
B ----------------- 
G ----------5-----5 
D ----2-----7-----5 
A ----2-----7-----3 
E ----0------------ 
 
 
yeah thats basically it. got any questions or nething, email me at [email protected] or IM me at XxSo far losTxX. FATA rules 
 

    	
fixar
fixar inscrever-se

enviado porenviado por: anônimo
cifra enviadaCorrigida por: sem correções
logo top cifrasComente
ico música do artistaMúsicas deste artista
ico curtiuCurtiu?
ico destaqueDestaque
Petaxxon Comunicação Online

Cifras.com.br - Melhor e mais completo site de cifras e tablaturas do Brasil Mais de 1 milhão de acordes de músicas cadastradas desde 2003
As informações contidas no nosso site são colaborações de seus usuários e podem conter erros, sendo assim, não nos responsabilizamos sobre nenhuma destas.

close
menos
mais
close
Cor dos acordes:

Cor da letra:

close
Alinhar acordes a direita Alinhar acordes a esquerda Alinhar acordes em baixo Alinhar acordes no topo
close
  Mostrar todos os acordes Esconder acordes muito fáceis Esconder acordes fáceis Esconder acordes intermediários
redimensionar
glossário