Cifras e Tablaturas
From Autumn To Ashes

From Autumn To Ashes

Milligram Smile (ver. 2)

Cifras Cancelar Versão de Impressão Print

From Autumn To Ashes - Milligram Smile (ver. 2)

Tom:

  			This is how Scott Gross played this song live 
 
 
Intro 
E----------------------------------------------------------------------- 
B----------------------------------------------------------------------- 
G-9-9-9-9-9-9-9-9-9-9-9-9-9--x-x--7-7-7-7-7-7-7-7-7-7-7-7-7-7-7--x-x---- 
D-x-x-x-x-x-x-x-x-x-x-x-x-x--x-x--x-x-x-x-x-x-x-x-x-x-x-x-x-x-x--x-x---- 
A-7-7-7-7-7-7-7-7-7-7-7-7-7--x-x--5-5-5-5-5-5-5-5-5-5-5-5-5-5-5--x-x----  
E----------------------------------------------------------------------- 
 
E---------------------------------------------------------------- 
B---------------------------------------------------------------- 
G-5-5-5-5-5-5-5-5-5-5-5-5-5-5-5--x-x--9-9-12-9-9-12-9-9-12x------ 
D-5-5-5-5-5-5-5-5-5-5-5-5-5-5-5--x-x--x-x-x-x-x-x-x-x-x-x-x------ 
A-3-3-3-3-3-3-3-3-3-3-3-3-3-3-3--x-x--7-7-10-7-7-10-7-7-10x------ 
E---------------------------------------------------------------- 
 
Verse 
E------------------------------------------------------------------------------------- 
B------------------------------------------------------------------------------------- 
G-9-9-9-9-9-9-9-9-9-9-9-9-9-9-9-9--11-11-11-11-11-11-11-11--14-14-14--12-12-12---11-11 
D-x-x-x-x-x-x-x-x-x-x-x-x-x-x-x-x--x--x--x--x--x--x--x--x---x--x--x--x---x--x--x-x-x-x 
A-7-7-7-7-7-7-7-7-7-7-7-7-7-7-7-7--9--9--9--9--9--9--9--9---12-12-12--10-10-10----9-9 
E-------------------------------------------------------------------------------------- 
 
E------------------------------------------------------------------------------- 
B------------------------------------------------------------------------------- 
G-17-17-17--15-15-15--14-14--17-17-17--15-15-15--14-14--19-19-19--17-17-17--15-15 
D-x--x--x---x--x--x---x--x---x--x--x---x--x--x---x--x---x--x--x---x--x--x---x--x 
A-15-15-15--13-13-13--12-12--15-15-15--13-13-13--12-12--17-17-17--15-15-15--13-13 
E-------------------------------------------------------------------------------- 
 
E----------------------------------------| 
B----------------------------------------| 
G-14-14-14--12-12-12--11-11-11-----------| 
D-x--x--x---x--x--x---x--x--x------------| 
A-12-12-12--10-10-10--9--9--9------------| 
E----------------------------------------| 
 
E---------------------------------------------------------------------------- 
B---------------------------------------------------------------------------- 
G-5x5x5-5-5------------------------------------------------------------------ 
D-5x5x5-5-5----------2x2x2--2-2---------------------------------------------- 
A-3x3x3-3-3----------2x2x2--2-2---------------------------------------------- 
E--------------------0x0x0--0-0---------------------------------------------- 
(im a writer and a poet...) 
 
 
E----------------------------------------------------------------------------- 
B----------------------------------------------------------------------------- 
G---------------------------------------2------------------------------------- 
D-2---------5--------0-------------2----------2------------------------------- 
A-2---------5--------0---------2-3---3----2-3--------------------------------- 
E-0---------3--------0-------------------------------------------------------- 
 chorus (the words i write, are cheap and trite) 
 
Acoustic part 
-|--3-3--------3-3--------2h3h2----------3------------------------------------ 
-|--3---3---3--3---3---3--3----3-----------2---------------------------------- 
-|--0-----0----0-----0----2------2-----0-----0-------------------------------- 
-|--2----------0----------0----------2---------2------------------------------ 
-|--2----------2----------x--------3------------------------------------------ 
-|--x----------3----------x--------------------------------------------------- 
 

    	
fixar
fixar inscrever-se

enviado porenviado por: anônimo
cifra enviadaCorrigida por: sem correções
logo top cifrasComente
ico música do artistaMúsicas deste artista
ico curtiuCurtiu?
ico destaqueDestaque
Petaxxon Comunicação Online

Cifras.com.br - Melhor e mais completo site de cifras e tablaturas do Brasil Mais de 1 milhão de acordes de músicas cadastradas desde 2003
As informações contidas no nosso site são colaborações de seus usuários e podem conter erros, sendo assim, não nos responsabilizamos sobre nenhuma destas.

close
menos
mais
close
Cor dos acordes:

Cor da letra:

close
Alinhar acordes a direita Alinhar acordes a esquerda Alinhar acordes em baixo Alinhar acordes no topo
close
  Mostrar todos os acordes Esconder acordes muito fáceis Esconder acordes fáceis Esconder acordes intermediários
redimensionar
glossário