Cifras e Tablaturas
From Autumn To Ashes

From Autumn To Ashes

Short Stories With Tragic Endings

Cifras Cancelar Versão de Impressão Print

From Autumn To Ashes - Short Stories With Tragic Endings

Tom: A

  			From Autumn TO Ashes 
short Stories With Tragic Endings 
Tabbed by Jeremy 
 
tunning e A D G B E 
 
Intro: 
|-------------------|  |-------------------| 
|-----------0-------|x2|-----------0-------|x2,  
|------5-------5----|  |------5-------5----| 
|----7---7--------7-|  |----7---7--------7-| 
|-8-----------------|  |-0-----------------| 
|-------------------|  |-------------------|   (x4) 
 
 
1st guitar: 
|-------------------|  |-------------------| 
|-----------0-------|x2|-----------0-------|x2 
|------5-------5----|  |------5-------5----| 
|----7---7--------7-|  |----7---7--------7-| 
|-8-----------------|  |-0-----------------| 
|-------------------|  |-------------------| 
 
2nd guitar: 
|--------------------| |---------------------| 
|--------------------| |---------------------| 
|--------------------| |---------------------| 
|--------------------| |-2---------------2-2-| 
|-3---------------3-3| |-0---------------0-0-| 
|-1---------------1-1| |---------------------|   (x2) 
  .               . .     .               . . 
 
 
1st guitar: 
|-------------------|  |-------------------| 
|-----------0-------|x2|-----------0-------| 
|------5-------5----|  |------5-------5----| 
|----7---7--------7-|  |----7---7--------7-| 
|-8-----------------|  |-0-----------------| 
|-------------------|  |-------------------| 
 
2nd guitar: 
|-------------------|  |-------------------| 
|-------------------|  |-------------------| 
|-------------------|  |-------------------| 
|-------------------|  |-2--2222-2--2222-2-| 
|-3--3333-3--3333-3-|  |-0--0000-0--0000-0-| 
|-1--1111-1--1111-1-|  |-------------------|   (x2) 
 
 
1st guitar: 
|-0-----------------|  |-0-----------------| 
|-0-----------------|x2|-0-----------------|x2 
|-5-----------------|  |-5-----------------| 
|-7-----------------|  |-7-----------------| 
|-8-----------------|  |-0-----------------| 
|-------------------|  |-------------------|    
 
2nd guitar: 
|-------------------|  |-------------------| 
|-------------------|  |-------------------| 
|-------------------|  |-------------------| 
|-------------------|  |-2-----------------| 
|-3-----------------|  |-0-----------------| 
|-1-----------------|  |-------------------|   (x2) 
 
 
1st verse: 
|-----------------------------------| 
|-----------------------------------| 
|-----------------------------------| 
|-----------5-----3-----2-----------| 
|-2-2-3-2-2---2-2---2-2---2-2-5-2-3-| 
|-----------------------------------| 
  . .   . .   . .   . .   . . 
 
|-----------------------------------||------------------------------------| 
|-----------------------------------||------------------------------------|x2 
|-----------------------------------||------------------------------------| 
|-----------5-----3-----2-----------||-----------5-----3-----2-----553322-| 
|-2-2-3-2-2---2-2---2-2---2-2-5-2-3-||-2-2-3-2-2---2-2---2-2---2-2--------| 
|-----------------------------------||------------------------------------| 
  . .   . .   . .   . .   . .          . .   . .   . .   . .   . . ...... 
 
|-----------------------------------| 
|-----------------------------------| 
|-----------------------------------| 
|-----------5-----3-----2-----------| 
|-2-2-3-2-2---2-2---2-2---2-2-5-2-3-| 
|-----------------------------------| 
  . .   . .   . .   . .   . . 
 
|-----------------------------------||------------------------------------| 
|-----------------------------------||------------------------------------|x2 
|-----------------------------------||------------------------------------| 
|-----------5-----3-----2-----------||-----------5-----3-----2-----553322-| 
|-2-2-3-2-2---2-2---2-2---2-2-5-2-3-||-2-2-3-2-2---2-2---2-2---2-2--------| 
|-----------------------------------||------------------------------------| 
  . .   . .   . .   . .   . .          . .   . .   . .   . .   . . ...... 
 
bridge: 
 the bridge im pretty sure it is all bass except the last few notes. 
|-----||-----| 
|-----||-----| 
|-----||-----| 
|-2-2-||-2-2-| 
|-0-0-||-0-0-| 
|-----||-----| 
  . .    . .  
 
chorus: 
|------------------------------------| 
|------------------------------------|x4 
|-9-9-9-9-9-9-9-10--5-5-5-5-5-5-5--7-| 
|-9-9-9-9-9-9-9-10--5-5-5-5-5-5-5--7-| 
|-7-7-7-7-7-7-7--7--3-3-3-3-3-3-3--5-| 
|------------------------------------| 
                    . . . . . . . 
 
|---------------------------------| 
|---------------------------------|x4 
|-9-9-9-9111111111212121214141414-| 
|-x-x-x-x-x-x-x-x-x-x-x-x-x-x-x-x-| 
|-7-7-7-7-9-9-9-91010101012121212-| 
|---------------------------------| 
 
2nd verse: 
|-----------------------------------| 
|-----------------------------------| 
|-----------------------------------| 
|-----------5-----3-----2-----------| 
|-2-2-3-2-2---2-2---2-2---2-2-5-2-3-| 
|-----------------------------------| 
  . .   . .   . .   . .   . . 
 
|-----------------------------------||------------------------------------| 
|-----------------------------------||------------------------------------|x2 
|-----------------------------------||------------------------------------| 
|-----------5-----3-----2-----------||-----------5-----3-----2-----553322-| 
|-2-2-3-2-2---2-2---2-2---2-2-5-2-3-||-2-2-3-2-2---2-2---2-2---2-2--------| 
|-----------------------------------||------------------------------------| 
  . .   . .   . .   . .   . .          . .   . .   . .   . .   . . ...... 
 
|-----------------------------|-----------| 
|-----------------------------|-----------| 
|-----------------------------|-2/9--7--5-| 
|-----3p2-----3p2-----3p2-----|-----------| 
|-2-2-----2-2-----2-2-----2-2-|-----------| 
|-----------------------------|-----------| 
  . .     . .     . .     . . 
 
1st guitar: 
|-------------------|  |-------------------| 
|-----------0-------|x2|-----------0-------|x2 
|------5-------5----|  |------5-------5----| 
|----7---7--------7-|  |----7---7--------7-| 
|-8-----------------|  |-0-----------------| 
|-------------------|  |-------------------| 
 
2nd guitar: 
|--------------------| |---------------------| 
|--------------------| |---------------------| 
|--------------------| |---------------------| 
|--------------------| |-2---------------2-2-| 
|-3---------------3-3| |-0---------------0-0-| 
|-1---------------1-1| |---------------------|   (x2) 
  .               . .     .               . . 
 
1st guitar: 
|-------------------|  |-------------------| 
|-----------0-------|x2|-----------0-------| 
|------5-------5----|  |------5-------5----| 
|----7---7--------7-|  |----7---7--------7-| 
|-8-----------------|  |-0-----------------| 
|-------------------|  |-------------------| 
 
2nd guitar: 
|-------------------|  |-------------------| 
|-------------------|  |-------------------| 
|-------------------|  |-------------------| 
|-------------------|  |-2--2222-2--2222-2-| 
|-3--3333-3--3333-3-|  |-0--0000-0--0000-0-| 
|-1--1111-1--1111-1-|  |-------------------|   (x2) 
 
 
1st guitar: 
|-0---------------|  |-0---------------| 
|-0---------------|x2|-0---------------|x2 
|-5---------------|  |-5---------------| 
|-7---------------|  |-7---------------| 
|-8---------------|  |-0---------------| 
|-----------------|  |-----------------|    
 
2nd guitar: 
|-----------------|  |-----------------| 
|-----------------|x2|-----------------|x2 
|-----------------|  |-----------------| 
|-----------------|  |-2---------------| 
|-3---------------|  |-0---------------| 
|-1---------------|  |-----------------|   (x2) 
 
solo: 1st guitar: 
|-------------------------------------------------------------| 
|-------------------------------------------------8-8-8-8-8-8-|cont. 
|-5-5-5-5-5-5-7-7-7-7-7-7-9-9-9-9-9-9-9-9-9-9-9-9-------------| 
|-------------------------------------------------------------| 
|-------------------------------------------------------------| 
|-------------------------------------------------------------| 
 
|--------------------------------------------------------------| 
|-101010101010121212121212131313131313151515151515171717171717-|cont. 
|--------------------------------------------------------------| 
|--------------------------------------------------------------| 
|--------------------------------------------------------------| 
|--------------------------------------------------------------| 
 
|--------------------------------------| |----|   |----|   |----| 
|-151515151515131313131313151515151515-| |-17-|x12|-18-|x12|-19-|x12 
|--------------------------------------| |--v-|   |--v-|   |--v-| 
|--------------------------------------| |----|   |----|   |----| 
|--------------------------------------| |----|   |----|   |----| 
|--------------------------------------| |----|   |----|   |----| 
 
|----|   |----| 
|-18-|x12|-17-| I dont know how many times it plays this note at the 
|--v-|   |--v-| end of the solo. If you listen to it you can figure it  
|----|   |----| out. 
|----|   |----| 
|----|   |----| 
 
2nd guitar: 
|-----------------|  |-----------------| 
|-----------------|x2|-----------------|x2 
|-----------------|  |-----------------| 
|-----------------|  |-2--2222-2--2222-| 
|-3--3333-3--3333-|  |-0--0000-0--0000-| 
|-1--1111-1--1111-|  |-----------------| 
 
outro: acoustic: 
|-0--0000-0--0000-|  |-0--0000-0--0000-|   
|-0--0000-0--0000-|x2|-0--0000-0--0000-|x2 
|-5--5555-5--5555-|  |-4--4444-4--4444-|   
|-7--7777-7--7777-|  |-5--5555-5--5555-|   
|-0--0000-0--0000-|  |-0--0000-0--0000-|   
|-----------------|  |-----------------|   
 
|-0--0000-0--0000-|  |-0--0000-0--0000-|   
|-0--0000-0--0000-|x2|-0--0000-0--0000-|x2 
|-x--xxxx-x--xxxx-|  |-x--xxxx-x--xxxx-|   
|-5--5555-5--5555-|  |-7--7777-7--7777-|   
|-3--3333-3--3333-|  |-5--5555-5--5555-|   
|-----------------|  |-----------------|   (x12)  
On the last measure, the tempo gradually gets slower.  
 
|-0-| 
|-0-| 
|-5-| 
|-7-| 
|-0-| let ring out 
|---| 
 
email corrections to me at ([email protected]) 
 

    	
fixar
fixar inscrever-se

enviado porenviado por: anônimo
cifra enviadaCorrigida por: sem correções
logo top cifrasComente
ico música do artistaMúsicas deste artista
ico curtiuCurtiu?
ico destaqueDestaque
Petaxxon Comunicação Online

Cifras.com.br - Melhor e mais completo site de cifras e tablaturas do Brasil Mais de 1 milhão de acordes de músicas cadastradas desde 2003
As informações contidas no nosso site são colaborações de seus usuários e podem conter erros, sendo assim, não nos responsabilizamos sobre nenhuma destas.

close
menos
mais
close
Cor dos acordes:

Cor da letra:

close
Alinhar acordes a direita Alinhar acordes a esquerda Alinhar acordes em baixo Alinhar acordes no topo
close
  Mostrar todos os acordes Esconder acordes muito fáceis Esconder acordes fáceis Esconder acordes intermediários
redimensionar
glossário