Cifras e Tablaturas
From Autumn To Ashes

From Autumn To Ashes

Short Stories With Tragic Endings (ver. 2)

Cifras Cancelar Versão de Impressão Print

From Autumn To Ashes - Short Stories With Tragic Endings (ver. 2)

Tom:

  			Title: Short Stories With Tragic Endings 
Author: From Autumn To Ashes 
Tabbed by: Tweek87 
Tuning: Standard (eBGDAE) 
 
 (intro) 
|--------------------------------|   |-----------------------------------| 
|--------------------0-----------|   |------------------0----------------| 
|------------5----------5--------|   |-----------5--------5--------------| 
|---------7------7----------7----|   |-------7-----7--------7------------| 
|----8---------------------------|   |----0------------------------------| 
|--------------------------------|2x |-----------------------------------|2x 
 
Orchestra and Drums Take over --> 0:40 - 1:33 
 
Soft & distorted,0:40 - 1:16 
|------------------------------|   |-------------------------------------| 
|------------------0-----------|   |----------------0--------------------| 
|----------5----------5--------|   |---------5--------5------------------| 
|-------7------7----------7----|   |-----7-----7--------7----------------| 
|-(8)--------------------------|   |-(0)---------------------------------| 
|------------------------------|2x |-------------------------------------|2x   
 
Guitar 2 1:33 - 1:57 
|------------------------------------------------------------------------| 
|------------------------------------------------------------------------| 
|------------------------------------------------------------------------| 
|--------------5--------3------5--3--2--------------5------3-------------| 
|--2-2-3-2-------2-----2-2------------2-2-3-2---2-2-----2-2--3-2-5-2-3---| 
|------------------------------------------------------------------------|4x 
 
Guitar 2 
|-----------------------------------| 
|-----------------------------------| 
|-----------------------------------| 
|------------5--------3------5--3--2| 
|2-2-3-2-------2-----2-2------------| 
|-----------------------------------|once 
 
 
|------------------------------------------------------------------------| 
|------------------------------------------------------------------------| 
|------------------------------------------------------------------------| 
|---2-2---2-2---2-2---2-2---2-2---2-2-----------------2--2---------------| 
|---2-2---2-2---2-2---2-2---2-2---2-2-----------------2--2---------------| 
|---0-0---0-0---0-0---3-3---3-3---3-3-(x3)------------3--3---------------| 
    ..............muted..............      it's like, choking, choking... 
 
|-----------------------------------------------------------| 
|-----------------------------------------------------------| 
|-----------------------------------------------------------| 
|----9--9--9--9--10-----5-5-5-5-5-5-5---7-------------------| 
|----7--7--7--7--7------3-3-3-3-3-3-3---5-------------------| 
|-----------------------------------------------------------| 
                        ^*palm mute*^        
 
|-------------------------------------------------------------------------| 
|-------------------------------------------------------------------------| 
|-------------------------------------------------------------------------| 
|-9-9-9-9-9-9-9---10101010101010---1111111111111111---13131313131313------| 
|-7-7-7-7-7-7-7----8-8-8-8-8-8-8----9-9-9-9-9-9-9-9---11111111111111------| 
|-------------------------------------------------------------------------| 
 
Guitar 2 - (3:13 to 3:24)  
|-----------------------------------------------------------------------| 
|-----------------------------------------------------------------------| 
|-----------------------------------------------------------------------| 
|-------------5--------3------5--3--2--------------5------3-------------| 
|-2-2-3-2-----2-2-----2-2------------2-2-3-2----2-2----2-2--3-2-5-2-3---| 
|-----------------------------------------------------------------------|2x 
 
Guitar 2 
|-----------------------------------| 
|-----------------------------------| 
|-----------------------------------| 
|------------5--------3------5--3--2| 
|2-2-3-2-----2-2-----2-2------------| 
|-----------------------------------|once 
 
 
|-----------------|    |------------------------------------------| 
|-----------------|    |----------(could be orchesta)-------------| 
|-------9---7--5--|    |------------------------------------------| 
|-------9---7--5--|    |-----3~------3-3-----------7~----7-7------| 
|-------7---5--3--|    |-----3~------3-3-----------7~----7-7------| 
|-----------------|once|-----1~------1-1-----------5~----5-5------|repetively 
        
(soft/distorted) -  
|--------------------------------|   |----------------------------------| 
|--------------------0-----------|   |-----------------0----------------| 
|------------5----------5--------|   |----------5--------5--------------| 
|--------7------7----------7-----|   |------7-----7--------7------------|     
|---8----------------------------|   |---0------------------------------| 
|--------------------------------|2x |----------------------------------|2x 
 
 
The Rest of the song is acoustic from here, you should start at 5:41,to the end. 
|----------------------------------------| 
|----------------------------------------| 
|-------5-------4------------------------| 
|-------7-------5------5----7------------| 
|----------------------3----5------------| 
|----------------------------------------| 
 
 
Guitar 2 plays the fast parts, as printed. Guitar 2 has another in the song at 
4:16, but i didnt tab that part so I just tabbed out what is actually important. 
Orchestra actually sounds like guitar, in parts, but dont be fooled. Thanks! 
 
- - - Any questions for me?--> [email protected] - - - 
 

    	
fixar
fixar inscrever-se

enviado porenviado por: anônimo
cifra enviadaCorrigida por: sem correções
logo top cifrasComente
ico música do artistaMúsicas deste artista
ico curtiuCurtiu?
ico destaqueDestaque
Petaxxon Comunicação Online

Cifras.com.br - Melhor e mais completo site de cifras e tablaturas do Brasil Mais de 1 milhão de acordes de músicas cadastradas desde 2003
As informações contidas no nosso site são colaborações de seus usuários e podem conter erros, sendo assim, não nos responsabilizamos sobre nenhuma destas.

close
menos
mais
close
Cor dos acordes:

Cor da letra:

close
Alinhar acordes a direita Alinhar acordes a esquerda Alinhar acordes em baixo Alinhar acordes no topo
close
  Mostrar todos os acordes Esconder acordes muito fáceis Esconder acordes fáceis Esconder acordes intermediários
redimensionar
glossário