Funeral For a Friend

Funeral For a Friend

Sixteen
Composição de (Richard Boucher, Gavin Burrough, Kris Coombs-roberts, Matthew Davies-kreye, Ryan Richards)
>INTRO/VERSE< 

eb|---------------------------------------| 
Bb|---------------------------------------| 
Gb|-------11-11-11-11-11-11-11-11-11-11---| 
Db|--------x--x--x--x--x--x--x--x--x--x---| 
Ab|-X-X-X--9--9--9--9--9--9--9--9--9--9---| 
Db|-X-X-X---------------------------------| 

eb|-------------------------------------------| 
Bb|-------------------------------------------| 
Gb|-----------11-9----9---/12-11---------11~--| 
Db|---------9------12------------12-9-12------| 
Ab|-9--9-12-----------------------------------| 
Db|-9-----------------------------------------| 

eb|----------------------------------------| 
Bb|----------------------------------------| 
Gb|-----11----------12----------14-----11--| 
Db|------x-----------x-----------x------x--| 
Ab|-9-9--9-10-10-10-10-12-12-12-12-9-9--9--| 
Db|----------------------------------------| 

eb|-------------------------------| 
Bb|-------------------------------| 
Gb|-------------------------------| 
Db|-9--9-9--9-9-9--5--5-5--5-5-5--| 
Ab|-9--9-9--9-9-9--5--5-5--5-5-5--| 
Db|-9--9-9--9-9-9--5--5-5--5-5-5--| 



>PRECHORUS BREAK< 

eb|------------------------------| 
Bb|------------------------------| 
Gb|-11---11---11----14-14\-------| 
Db|--x----x----x-----x--x\-------| 
Ab|--9----9----9----12-12\--(5)--| 
Db|-------------------------(5)--| 



>CHORUS VERSION 1< 

eb|----------------------------------------------------------| 
Bb|----------------------------------------------------------| 
Gb|-12-11---------12-11---------12-11--------14----14----14~-| 
Db|-------12------------12------------12-12~----12----12-----| 
Ab|----------14~-----------12~-------------------------------| 
Db|----------------------------------------------------------| 

eb|---------------------------------------| 
Bb|---------------------------------------| 
Gb|-11-----11-----11-----11-----11---11---| 
Db|--x------x------x------x------x----x---| 
Ab|--9-9-9--9-9-9--9-9-9--9-9-9--9-9--9-9-| 
Db|---------------------------------------| 

eb|-------------------------------------| 
Bb|-------------------------------------| 
Gb|-12-------12-------12-------12-------| 
Db|--x--------x--------x--------x-------| 
Ab|-10-10-10-10-10-10-10-10-10-10-10-10-| 
Db|-------------------------------------| 

eb|-------------------------------------------| 
Bb|-------------------------------------------| 
Gb|-12-11---------12-11---------12-11---------| 
Db|-------12------------12------------12-12~--| 
Ab|----------14~-----------12~----------------| 
Db|-------------------------------------------| 

  - this is the arpeggio for the sweep picking in the 
    first chorus, it's just a basic minor arpeggio, so 
    try and get it in if you can.  

eb|-------------10h14p10--------------| 
Bb|----------12----------12-----------| 
Gb|-------11----------------11--------| 
Db|----12----------------------12-----| 
Ab|-14----------------------------14--|  
Db|-----------------------------------| 
  |__3__|  |__3__|  |__3__|   



>REPEAT INTRO/VERSE< 
>REPEAT PRECHORUS BREAK< 



>CHORUS VERSION 2< 

eb|----------------------------------------------------------| 
Bb|----------------------------------------------------------| 
Gb|-12-11---------12-11---------12-11--------14----14----14~-| 
Db|-------12------------12------------12-12~----12----12-----| 
Ab|----------14~-----------12~-------------------------------| 
Db|----------------------------------------------------------| 

eb|---------------------------------------| 
Bb|---------------------------------------| 
Gb|-11-----11-----11-----11-----11---11---| 
Db|--x------x------x------x------x----x---| 
Ab|--9-9-9--9-9-9--9-9-9--9-9-9--9-9--9-9-| 
Db|---------------------------------------| 

eb|-------------------------------------| 
Bb|-------------------------------------| 
Gb|-12-------12-------12-------12-------| 
Db|--x--------x--------x--------x-------| 
Ab|-10-10-10-10-10-10-10-10-10-10-10-10-| 
Db|-------------------------------------| 

eb|----------------------------------------------------------| 
Bb|----------------------------------------------------------| 
Gb|-12-11---------12-11---------12-11--------14----14----14~-| 
Db|-------12------------12------------12-12~----12----12-----| 
Ab|----------14~-----------12~-------------------------------| x2 
Db|----------------------------------------------------------| 

eb|-------------------------------------------------------| 
Bb|-------------------------------------------------------| 
Gb|-------------------------------------------------------| 
Db|-12-11--------12-11--------12-11---------12-11---------| 
Ab|-------12-9~--------12-7~--------12-12~--------12-14~--| 
Db|-------------------------------------------------------| 

eb|-------------------------------------| 
Bb|-------------------------------------| 
Gb|-------------------------------------| 
Db|-12-11--------12-11------------------| 
Ab|-------12-9~--------12-7~--7/9~--5~--| 
Db|-------------------------------------| 



>BRIDGE< 

eb|----------------------------| 
Bb|----------------------------| 
Gb|-7-7--9-9--11-11--14-14--14-| 
Db|-x-x--x-x---x--x---x--x---x-| 
Ab|-5-5--7-7---9--9--12-12--12-| 
Db|----------------------------| 

eb|-------------------------| 
Bb|-------------------------| 
Gb|-7-7--9-9--7-7---9/11\9--| 
Db|-x-x--x-x--x-x---x/-x\x--| 
Ab|-5-5--7-7--5-5---7/-9\7--| x2 
Db|-------------------------| 



>AMAAAAAZING LICK< 

eb|-15-------14----15----14----17p14----14h15p14--------| 
Bb|----12-12----12----12----12-------15----------15/12--| 
Gb|-----------------------------------------------------| 
Db|-----------------------------------------------------| 
Ab|-----------------------------------------------------| x4 
Db|-----------------------------------------------------| 



>FINAL CHORUS< 

eb|----------| 
Bb|----------| 
Gb|----------| 
Db|-4~---5---| 
Ab|-4~---5---| <-just played before once. 
Db|-4~---5---| 

eb|-15-14---------15-14--------15-14-------17----17----17-| 
Bb|-------15------------15-----------15-15----15----15----| 
Gb|----------16~-----------14~----------------------------| 
Db|-------------------------------------------------------| 
Ab|-------------------------------------------------------| x2 
Db|-------------------------------------------------------| 

eb|-----------------------------------------------------| 
Bb|-15-14--------15-14--------15-14---------15-14-------| 
Gb|-------14-----------14-----------14-14~--------14/16-| 
Db|----------16~----------14~---------------------------| 
Ab|-----------------------------------------------------| 
Db|-----------------------------------------------------| 

eb|------------------------------------------------------| 
Bb|-15-14--------15-14-----------------------------------| 
Gb|-------14-----------14-----------------14----14----14-| 
Db|----------16~----------14~--14/16~--12----12----12----| 
Ab|------------------------------------------------------| 
Db|------------------------------------------------------|

Enviado por: Fernando Santana

Corrigido por: sem correções