Funeral For a Friend

Funeral For a Friend

Spinning Over The Island
Composição de (Funeral for a Friend)
INTRO/VERSE 

eb|---------------|----------------| 
Bb|---------------|----------------| 
Gb|---------------|----------------| 
Db|-------2---2---|-------2--------| 
Ab|---------------|-----------3----| 
Db|-2-2-2---2---2-|-2-2-2---2---2--| <- The set of triple 2s are triplets. 
   
eb|---------------|------------------| 
Bb|---------------|------------------| 
Gb|---------------|------------------| 
Db|-------2---2---|---------------2--| 
Ab|---------------|-----2-3-2-3-5----| 
Db|-2-2-2---2---2-|-2-5--------------| 


HARMONISED INTRO/VERSE 

eb|---------------|----------------| 
Bb|---------------|----------------| 
Gb|---------------|----------------| 
Db|-------5---5---|-------5---2----| 
Ab|---------------|----------------| 
Db|-2-2-2---2---2-|-2-2-2---2---2--| 

eb|---------------|------------------| 
Bb|---------------|------------------| 
Gb|---------------|------------------| 
Db|-------5---5---|-----0-2-0-2-4-5--| 
Ab|---------------|---2--------------| 
Db|-2-2-2---2---2-|-5----------------| 


VERSE PT.2 

eb|-----------------|-----------------| 
Bb|-----------------|-----------------| 
Gb|---------4-----2-|-----------------| 
Db|-----2-----2-----|---------4-----2-| 
Ab|-----------------|-----5-----5-----| 
Db|-2-2---2-----2---|-5-5---5-----5---| 

eb|-----------------|-----------------| 
Bb|-----------------|-----------------| 
Gb|-----------------|-----------------| 
Db|-----2---4-5-4---|-----2---2/0-----| 
Ab|-0-0---0-------5-|-0-0---0---------| X4 
Db|-----------------|-------------5-4-| 


PRE-,CHORUS 
 - let all the notes ring. 

eb|-------0~--------|-------0~-2~-----| 
Bb|----3~----3~-----|-2~-3~-------3~--| 
Gb|-2~----------2~--|-----------------| 
Db|-----------------|-----------------| 
Ab|-----------------|-----------------| 
Db|-----------------|-----------------| 

eb|-2~----2~--------|-----------------| 
Bb|----3~-------3~--|-----------------| 
Gb|----------4~-----|-4~--------------| 
Db|-----------------|-----------------| 
Ab|-----------------|-----------------| X2 
Db|-----------------|-----------------| 



CHORUS 
 - this section is nearly impossible to hear, so i had to slow the track 
   down to half speed, so listen hard to see how it fits! 

eb|-2-----5---2-----2---2---2-3~--| 
Bb|---3-3---3---3-3---3---3-------| 
Gb|-------------------------------| 
Db|-------------------------------| 
Ab|-------------------------------| 
Db|-------------------------------| 

eb|-------2-------------------------| 
Bb|-3/5-------5-----5-------5-------| 
Gb|-----2---2---2-2---2-2-2---2-2-2-| 
Db|---------------------------------| 
Ab|---------------------------------| 
Db|---------------------------------| 

eb|---------------|----------------| 
Bb|-0/3-----3-----|-2/3-2-2-3-2-2--| 
Gb|-----4-4---4-4-|----------------| 
Db|---------------|----------------| 
Ab|---------------|----------------| 
Db|---------------|----------------| 

eb|---------------------------------| 
Bb|---5-----5-------3-------3-------| 
Gb|-2---2-2---2-2-2---2-2-2---2-2-2-| 
Db|---------------------------------| 
Ab|---------------------------------| 
Db|---------------------------------| 

REPEAT INTRO/VERSE 
 - at the start its slightly varied, but not hard to hear, so just listen 
   and see how to play it. 

REPEAT VERSE PT.2 
REPEAT PRECHORUS 
REPEAT PRECHORUS 

eb|-----------| 
Bb|-----------| 
Gb|-2~---7~---| 
Db|-2~---7~---| 
Ab|-0~---5~---| 
Db|-----------| 


ENDING 
 - essentially just keep strumming this doublestop in the rhythm on the track. 

eb|-----| 
Bb|-----| 
Gb|--7--| 
Db|--7--| 
Ab|-(5)-| 
Db|-----| 


 - then this guitar part comes in, with distortion. 
 - after a while it varies to more palm muted, but its essentially the  
   same chords. 

eb|----------------------------------------------------| 
Bb|----------------------------------------------------| 
Gb|-4-4-4-4-4-4--6-6-6-6-6-6---------------------------| 
Db|-4-4-4-4-4-4--7-7-7-7-7-7--5-5-5-5-5-5--5-5-5-------| 
Ab|-2-2-2-2-2-2--4-4-4-4-4-4--5-5-5-5-5-5--5-5-5-5-5-5-| 
Db|---------------------------5-5-5-5-5-5--4-4-4-7-7-7-| 


 - the acoustic part comes back, but this time guitar 2 plays this underneath:  

eb|--------------------------| 
Bb|--------------------------| 
Gb|--------------------------| 
Db|-7-7-7-7-7-7--------------| 
Ab|-5-5-5-4-4-4-5-5-5-5-5-5--| 
Db|-------------5-5-5-5-5-5--|

Enviado por: Roberto Poiel

Corrigido por: sem correções