Cifras e Tablaturas
Funeral For Afind
Cifras Cancelar Versão de Impressão

Funeral For Afind - Novella

Tom: C#

  			Tuning: Drop C# 
 
Key 
. Palm Mute 
^ Bend 
: Hold 
 
Intro 
 
  GTR1   GTR2   GTR1 
|------|------|------ 
|------|------|------ 
|------|------|------ 
|-44-0-|-44-0-|-44-0- 
|-44-0-|-44-0-|-44-0- 
|-44-0-|-44-0-|-44-0- 
 
Verse 
|------------------------------------------------------ 
|------------------------------------------------------ 
|----------------77-99--------------------------------- 
|-44-0-44-0-44-0-xx-xx-44-0-44-0-44-0------------------ 
|-44-0-44-0-44-0-55-77-44-0-44-0-44-0------------------ 
|-44-0-44-0-44-0-------44-0-44-0-44-0-00-000-00-000-00- 
                                      ................. 
 
Chorus (work out strumming pattern) 
|----------------- 
|----------------- 
|----------------- 
|-5-0-9-4-5-9-5-9- 
|-5-0-9-4-5-9-5-9- 
|-5-0-9-4-5-9-5-9- 
 
Repeat Intro and Verse 
 
Interlude 
GTR1 
|-------------------------------------- 
|----------------------------------5--- 
|-6-6-4-4--6-6-4-4--6-6-4-4--6-6-4--4-- 
|----7-7-7----7-7-7----7-7-7----7-7--7- 
|-------------------------------------- 
|-------------------------------------- 
GTR2 
|-5-4-5----5-4-5-----5-4------5-4-7---- 
|-------------------5---5----5---5----- 
|-------------------------------------- 
|-------------------------------------- 
|-------------------------------------- 
|-------------------------------------- 
 
Heavy Guitar Bit 
GTR1 
|--------------------------------------- 
|--------------------------------------- 
|--------------------------------------- 
|----4664444446644444------------------- 
|-4^-4447474744474747-5-7-9-12:--5-7-4^- 
|----4444444444444444------------------- 
GTR2 
|----------------------------------------- 
|----------------------------------------- 
|-6^------------------7-9-11-14:--7-9-6^-- 
|----4664444446644444--------------------- 
|----4447474744474747--------------------- 
|----4444444444444444--------------------- 
 
Repeat Intertude 
 

    	
fixar
fixar inscrever-se

enviado porenviado por: anônimo
cifra enviadaCorrigida por: sem correções
logo top cifrasComente
ico música do artistaMúsicas deste artista
ico curtiuCurtiu?
ico destaqueDestaque
Petaxxon Comunicação Online

Cifras.com.br - Melhor e mais completo site de cifras e tablaturas do Brasil Mais de 1 milhão de acordes de músicas cadastradas desde 2003
As informações contidas no nosso site são colaborações de seus usuários e podem conter erros, sendo assim, não nos responsabilizamos sobre nenhuma destas.

close
menos
mais
close
Cor dos acordes:

Cor da letra:

close
Alinhar acordes a direita Alinhar acordes a esquerda Alinhar acordes em baixo Alinhar acordes no topo
close
  Mostrar todos os acordes Esconder acordes muito fáceis Esconder acordes fáceis Esconder acordes intermediários
redimensionar
glossário