Cifras e Tablaturas
Fuzzy Box

Fuzzy Box

Castelo de Cartas (Vers.1)

Cifras Cancelar Versão de Impressão

Fuzzy Box - Castelo de Cartas (Vers.1)

Tom:

  			Intr: 
E ----------------------------------------------------- 
A --9---9---7--9---9---9---9---9--9--5--4--5--5-------- 
D --11--11--9--11--11--11--11--11-7--7--6--7--7--------  
G --11--11--9--11--11--11--11--11-7--7--6--7--7-------- 
B ----------------------------------------------------- 
E ----------------------------------------------------- 
 
E -----------------------------------------------6--5-- 
A --9---9---7--9---9---9---9---9--9--5--4--5--5--5--4-- 
D --11--11--9--11--11--11--11--11-7--7--6--7--7--------  
G --11--11--9--11--11--11--11--11-7--7--6--7--7-------- 
B ----------------------------------------------------- 
E ----------------------------------------------------- 
 
E ----------------------------------------------------- 
A --9---9---9-11-9-11------14-16-14-16----------------- 
D --11--11------------9----------------14-----11-9-----  
G --11--11--------------------------------11-9--------- 
B ----------------------------------------------------- 
E ----------------------------------------------------- 
 
Verso 1: 
 
E ----------------------------------------------------- 
A -4-4-4-4-12-12-12-12-4-4-4-4-14-14-14-14------------- 
D -6-6-6-6-14-14-14-14-6-6-6-6-16-16-16-16-------------  
G -6-6-6-6-14-14-14-14-6-6-6-6-16-16-16-16------------- 
B ----------------------------------------------------- 
E ----------------------------------------------------- 
 
Verso 2: 
 
E ----------------6-6-6-6-6-6-6-6-8-8-8-8-8-8-8-8------ 
A -5----------7---5-5-5-5-5-5-5-5-7-7-7-7-7-7-7-7------ 
D -7----------9----------------------------------------  
G -7----------9---------------------------------------- 
B ----------------------------------------------------- 
E ----------------------------------------------------- 
 
Verso 3: 
 
E ----------------------------------------------------- 
A -12-12-12-12-11-11-9--9--7-7-7-7-12-12-12-12-11-11--- 
D -xx-xx-xx-xx-xx-xx-xx-xx-x-x-x-x-xx-xx-xx-xx-xx-xx--- 
G -14-14-14-14-13-13-11-11-9-9-9-9-14-14-14-14-13-13--- 
B ----------------------------------------------------- 
E ----------------------------------------------------- 
 
E ----------------------------5-5-5-5------------------ 
A -12-12-14-14-14-14--4-4-4-4---------7-7-7-7---------- 
D -xx-xx-xx-xx-xx-xx--6-6-6-6-6-6-6-6-6-6-6-6----------  
G -14-14-16-16-16-16--6-6-6-6-6-6-6-6-6-6-6-6---------- 
B ----------------------------------------------------- 
E ----------------------------------------------------- 
 
Repete intr: 
 
E ----------------------------------------------------- 
A --9---9---7--9---9---9---9---9--9--5--4--5--5-------- 
D --11--11--9--11--11--11--11--11-7--7--6--7--7--------  
G --11--11--9--11--11--11--11--11-7--7--6--7--7-------- 
B ----------------------------------------------------- 
E ----------------------------------------------------- 
 
E -----------------------------------------------6--5-- 
A --9---9---7--9---9---9---9---9--9--5--4--5--5--5--4-- 
D --11--11--9--11--11--11--11--11-7--7--6--7--7--------  
G --11--11--9--11--11--11--11--11-7--7--6--7--7-------- 
B ----------------------------------------------------- 
E ----------------------------------------------------- 
 
Verso 1: 
 
E ----------------------------------------------------- 
A -16-16-------16-16-------16-16-------16-16----------- 
D -------14-14-------14-14-------14-14-------14-14-----  
G ----------------------------------------------------- 
B ----------------------------------------------------- 
E ----------------------------------------------------- 
 
Verso 2: 
 
E ----------------6-6-6-6-6-6-6-6-8-8-8-8-8-8-8-8------ 
A -5----------7---5-5-5-5-5-5-5-5-7-7-7-7-7-7-7-7------ 
D -7----------9----------------------------------------  
G -7----------9---------------------------------------- 
B ----------------------------------------------------- 
E ----------------------------------------------------- 
 
Verso 3: 
 
E ----------------------------------------------------- 
A -12-12-12-12-11-11-9--9--7-7-7-7-12-12-12-12-11-11--- 
D -xx-xx-xx-xx-xx-xx-xx-xx-x-x-x-x-xx-xx-xx-xx-xx-xx--- 
G -14-14-14-14-13-13-11-11-9-9-9-9-14-14-14-14-13-13--- 
B ----------------------------------------------------- 
E ----------------------------------------------------- 
 
E ----------------------------5-5-5-5------------------ 
A -12-12-14-14-14-14--4-4-4-4---------7-7-7-7---------- 
D -xx-xx-xx-xx-xx-xx--6-6-6-6-6-6-6-6-6-6-6-6----------  
G -14-14-16-16-16-16--6-6-6-6-6-6-6-6-6-6-6-6---------- 
B ----------------------------------------------------- 
E ----------------------------------------------------- 
 
Refrão: 
 
E ---------5-5-5-5-7-7-7-7-5-5-7-7--------------------- 
A -4-4-4-4-7-7-7-7-9-9-9-9-7-7-9-9--------------------- 
D -6-6-6-6-7-7-7-7-9-9-9-9-7-7-9-9---------------------  
G -6-6-6-6--------------------------------------------- 
B ----------------------------------------------------- 
E ----------------------------------------------------- 
 
Ponte: 
 
E ----------------------------------------------------- 
A -4-4-4-4-5-4-4-7-4-4-5-4-4--------------------------- 
D -6-6-6-6-7-6-6-9-6-6-7-6-6--------------------------- 
G -6-6-6-6-7-6-6-9-6-6-7-6-6--------------------------- 
B ----------------------------------------------------- 
E ----------------------------------------------------- 
 
Solo: 
 
E ----------------------------------------------------- 
A -----------------5-8------------------12-15-12------- 
D ---------------7-----5-7-5-4------------------12--14- 
G -7-----7-5-4-5---------------5-7-5-0------------12--- 
B -5-6-5----------------------------------------------- 
E ----------------------------------------------------- 
 
E ----------------------------------------------------- 
A ----------------------------------------12-14-15----- 
D -12-14----------15----15-------------------------12-- 
G -------15----12---12----14-15--12-14-15-------------- 
B ----------14--------12------------------------------- 
E ----------------------------------------------------- 
 
E ----------------------------------------------------- 
A ----------------------------------------------------- 
D -----15-14------------------------------------------- 
G -12-------------------------------------------------- 
B ----------------------------------------------------- 
E ----------------------------------------------------- 
 
Refrão: 
 
E --------------5-5----------7-7----------------------- 
A -4-4------------------------------------------------- 
D ----6-6---6-6----6-6---6-6-----6-6---6-6------------- 
G -------6-6----------6-6-----------6-6---------------- 
B ----------------------------------------------------- 
E ----------------------------------------------------- 
 
E ---------5-5-5-5-7-7-7-7-5-5-7-7--------------------- 
A -4-4-4-4-7-7-7-7-9-9-9-9-7-7-9-9--------------------- 
D -6-6-6-6-7-7-7-7-9-9-9-9-7-7-9-9---------------------  
G -6-6-6-6--------------------------------------------- 
B ----------------------------------------------------- 
E ----------------------------------------------------- 
 
Ponte: 
 
E ----------------------------------------------------- 
A -4-4-4-4-5-4-4-7-4-4-5-4-4--------------------------- 
D -6-6-6-6-7-6-6-9-6-6-7-6-6--------------------------- 
G -6-6-6-6-7-6-6-9-6-6-7-6-6--------------------------- 
B ----------------------------------------------------- 
E ----------------------------------------------------- 
 
FIM 
 
E --5---7---------------------------------------------- 
A --7---9--4--4---------------------------------------- 
D --7---9--6--6---------------------------------------- 
G ---------6--6---------------------------------------- 
B ----------------------------------------------------- 
E ----------------------------------------------------- 
 
 
 

    	
fixar
fixar inscrever-se

enviado porenviado por: teodoriko
cifra enviadaCorrigida por: sem correções
logo top cifrasComente
ico música do artistaMúsicas deste artista
ico curtiuCurtiu?
ico destaqueDestaque
Petaxxon Comunicação Online

Cifras.com.br - Melhor e mais completo site de cifras e tablaturas do Brasil Mais de 1 milhão de acordes de músicas cadastradas desde 2003
As informações contidas no nosso site são colaborações de seus usuários e podem conter erros, sendo assim, não nos responsabilizamos sobre nenhuma destas.

close
menos
mais
close
Cor dos acordes:

Cor da letra:

close
Alinhar acordes a direita Alinhar acordes a esquerda Alinhar acordes em baixo Alinhar acordes no topo
close
  Mostrar todos os acordes Esconder acordes muito fáceis Esconder acordes fáceis Esconder acordes intermediários
redimensionar
glossário