Cifras e Tablaturas
Fuzzy Box

Fuzzy Box

Castelo de Cartas (vers.2)

Cifras Cancelar Versão de Impressão

Fuzzy Box - Castelo de Cartas (vers.2)

Tom:

  			Intr: 
E -2-2-2-2--------------------------------------------- 
A -4-4-4-4---5--4--5--5--5-4--6---5-------------------- 
D -4-4-4-4---7--7--6--7--7-6--8---7-------------------- 
G -----------7--7--6--7--7-6--8---7-------------------- 
B ----------------------------------------------------- 
E ----------------------------------------------------- 
 
E ----------------------------------------------------- 
A -2---2----x--x--2--2--x--x--2--2--x--x--2----------- 
D -4---4----x--x--4--4--x--x--4--4--x--x--4--2-4-2-4---  
G -4---4----x--x--4--4--x--x--4--4--x--x--4----------2- 
B ----------------------------------------------------- 
E ----------------------------------------------------- 
 
 
Verso 1: 
 
E ---------5-5-5-5---------7-7-7-7--------------------- 
A -4-4-4-4-7-7-7-7-4-4-4-4-9-9-9-9--------------------- 
D -6-6-6-6-7-7-7-7-6-6-6-6-9-9-9-9---------------------  
G -6-6-6-6---------6-6-6-6----------------------------- 
B ----------------------------------------------------- 
E ----------------------------------------------------- 
 
Verso 2: 
 
E -0-----0--------------------------------------------- 
A -0-----2-----5-5-5-5----7-7-7-7---------------------- 
D -0-----2-----7-7-7-7----9-9-9-9----------------------  
G -2-----0-----7-7-7-7----9-9-9-9---------------------- 
B -3-----0--------------------------------------------- 
E -1-----0--------------------------------------------- 
 
Verso 3: 
 
E -5-5-5-5---------2-2-2-2-----------------5-5-5-5-7-7-- 
A -7-7-7-7-4-4-4-4-4-4-4-4-2-2-2-2-4-4-4-4-7-7-7-7-9-9-- 
D -7-7-7-7-6-6-6-6-4-4-4-4-4-4-4-4-6-6-6-6-7-7-7-7-9-9-- 
G ---------6-6-6-6---------4-4-4-4-6-6-6---------------- 
B ------------------------------------------------------ 
E ------------------------------------------------------ 
 
E ---------5-5-5-5-7-7-7-7------------------------------ 
A -4-4-4-4-7-7-7-7-9-9-9-9------------------------------ 
D -6-6-6-6-7-7-7-7-9-9-9-9------------------------------ 
G -6-6-6-6---------------------------------------------- 
B ------------------------------------------------------ 
E ------------------------------------------------------ 
 
Repete intr: 
 
Intr: 
E -2-2-2-2--------------------------------------------- 
A -4-4-4-4---5--4--5--5--5-4--6---5-------------------- 
D -4-4-4-4---7--7--6--7--7-6--8---7-------------------- 
G -----------7--7--6--7--7-6--8---7-------------------- 
B ----------------------------------------------------- 
E ----------------------------------------------------- 
 
Verso 1: 
 
E ----------------------------------------------------- 
A --4-4-4-4-4-4-4-4-4---------------------------------- 
D --6-6-6-6-6-6-6-6-6----------------------------------  
G --6-6-6-6-6-6-6-6-6---------------------------------- 
B ----------------------------------------------------- 
E ----------------------------------------------------- 
 
Verso 2: 
 
E -0-----0--------------------------------------------- 
A -0-----2-----5-5-5-5----7-7-7-7---------------------- 
D -0-----2-----7-7-7-7----9-9-9-9----------------------  
G -2-----0-----7-7-7-7----9-9-9-9---------------------- 
B -3-----0--------------------------------------------- 
E -1-----0--------------------------------------------- 
 
Verso 3: 
 
E -5-5-5-5---------2-2-2-2-----------------5-5-5-5-7-7-- 
A -7-7-7-7-4-4-4-4-4-4-4-4-2-2-2-2-4-4-4-4-7-7-7-7-9-9-- 
D -7-7-7-7-6-6-6-6-4-4-4-4-4-4-4-4-6-6-6-6-7-7-7-7-9-9-- 
G ---------6-6-6-6---------4-4-4-4-6-6-6---------------- 
B ------------------------------------------------------ 
E ------------------------------------------------------ 
 
E ---------5-5-5-5-7-7-7-7------------------------------ 
A -4-4-4-4-7-7-7-7-9-9-9-9------------------------------ 
D -6-6-6-6-7-7-7-7-9-9-9-9------------------------------ 
G -6-6-6-6---------------------------------------------- 
B ------------------------------------------------------ 
E ------------------------------------------------------ 
 
Refrão: 
 
E ---------5-5-5-5-7-7-7-7-5-5-7-7--------------------- 
A -4-4-4-4-7-7-7-7-9-9-9-9-7-7-9-9--------------------- 
D -6-6-6-6-7-7-7-7-9-9-9-9-7-7-9-9---------------------  
G -6-6-6-6--------------------------------------------- 
B ----------------------------------------------------- 
E ----------------------------------------------------- 
 
Ponte: 
 
E ----------------------------------------------------- 
A -4-4-4-4-5-4-4-7-4-4-5-4-4--------------------------- 
D -6-6-6-6-7-6-6-9-6-6-7-6-6--------------------------- 
G -6-6-6-6-7-6-6-9-6-6-7-6-6--------------------------- 
B ----------------------------------------------------- 
E ----------------------------------------------------- 
 
Solo: 
 
E -5-5-7-7-8--8--8--10--8--10-12-10-8--7-14-12-10-8--7-- 
A -7-7-9-9-10-10-10-12--10-12-14-12-10-9-16-14-12-10-9-- 
D -7-7-9-9-10-10-10-12--10-12-14-12-10-9-16-14-12-10-9-- 
G ------------------------------------------------------ 
B ------------------------------------------------------ 
E ------------------------------------------------------ 
 
 
Refrão: 
 
 
E ---------5-5-5-5-7-7-7-7-5-5-7-7--------------------- 
A -4-4-4-4-7-7-7-7-9-9-9-9-7-7-9-9--------------------- 
D -6-6-6-6-7-7-7-7-9-9-9-9-7-7-9-9---------------------  
G -6-6-6-6--------------------------------------------- 
B ----------------------------------------------------- 
E ----------------------------------------------------- 
 
Ponte: 
 
E ----------------------------------------------------- 
A -4-4-4-4-5-4-4-7-4-4-5-4-4--------------------------- 
D -6-6-6-6-7-6-6-9-6-6-7-6-6--------------------------- 
G -6-6-6-6-7-6-6-9-6-6-7-6-6--------------------------- 
B ----------------------------------------------------- 
E ----------------------------------------------------- 
 
FIM 
 
E --5---7---------------------------------------------- 
A --7---9--4--4---------------------------------------- 
D --7---9--6--6---------------------------------------- 
G ---------6--6---------------------------------------- 
B ----------------------------------------------------- 
E ----------------------------------------------------- 
 

    	
fixar
fixar inscrever-se

enviado porenviado por: teodoriko
cifra enviadaCorrigida por: sem correções
logo top cifrasComente
ico música do artistaMúsicas deste artista
ico curtiuCurtiu?
ico destaqueDestaque
Petaxxon Comunicação Online

Cifras.com.br - Melhor e mais completo site de cifras e tablaturas do Brasil Mais de 1 milhão de acordes de músicas cadastradas desde 2003
As informações contidas no nosso site são colaborações de seus usuários e podem conter erros, sendo assim, não nos responsabilizamos sobre nenhuma destas.

close
menos
mais
close
Cor dos acordes:

Cor da letra:

close
Alinhar acordes a direita Alinhar acordes a esquerda Alinhar acordes em baixo Alinhar acordes no topo
close
  Mostrar todos os acordes Esconder acordes muito fáceis Esconder acordes fáceis Esconder acordes intermediários
redimensionar
glossário