Cifras e Tablaturas
Fuzzy Box

Fuzzy Box

Começo do fim

Cifras Cancelar Versão de Impressão

Fuzzy Box - Começo do fim

Tom: A#

  			Intr: 
E -6-6-6-6-3-3-3-3------------------------------------- 
A -8-8-8-8-5-5-5-5-6-6-6-6-8--8--8--8------------------ 
D -8-8-8-8-5-5-5-5-8-8-8-8-10-10-10-10----------------- 
G -7-7-7-7-3-3-3-3-8-8-8-8----------------------------- 
B -6-6-6-6-3-3-3-3-6-6-6-6----------------------------- 
E -6-6-6-6-3-3-3-3-6-6-6-6----------------------------- 
 
E ----------------------------------------------------- 
A ----------------------------------------------------- 
D ----------------------------------------------------- 
G -10-10-11-11-13-13-11-10-11-10----------------------- 
B ----------------------------------------------------- 
E ----------------------------------------------------- 
 
E ---------6-6-6---------6-3-5---------6------------------------ 
A -------5---8-8-------5---5-5-------5---6-6-6-6-8--8-- 
D -3-5-3-----8-8-3-5-3-----5-5-3-5-3-----8-8-8-8-10-10- 
G ---------------------------------------8-7-8-7-10-10- 
B ----------------------------------------------------- 
E ----------------------------------------------------- 
 
Verso 1: 
E -6-6-6-6-3-3-3-3------------------------------------- 
A -8-8-8-8-5-5-5-5-6-6-6-6-8--8--8--8------------------ 
D -8-8-8-8-5-5-5-5-8-8-8-8-10-10-10-10----------------- 
G -----------------8-8-8-8-10-10-10-10----------------- 
B ----------------------------------------------------- 
E ----------------------------------------------------- 
 
Verso 2: 
E -------------------------------3-3-3-3--------------- 
A -6-6-x-x-8--6-5-6-8--8--8--8---5-5-5-5-6-6-6-6-8--8-- 
D -8-8-x-x-10-8-7-8-10-10-10-10--5-5-5-5-8-8-8-8-10-10- 
G -8-8-x-x-10-8-7-8-10-10-10-10----------8-8-8-8------- 
B ----------------------------------------------------- 
E ----------------------------------------------------- 
 
Ponte: 
E ---------6-6-6---------6-3-5---------6--------------- 
A -------5---8-8-------5---5-5-------5---6-6-6-6-8--8-- 
D -3-5-3-----8-8-3-5-3-----5-5-3-5-3-----8-8-8-8-10-10- 
G ---------------------------------------8-7-8-7-10-10- 
B ----------------------------------------------------- 
E ----------------------------------------------------- 
 
Verso 1: 
E -6-6-6-6-3-3-3-3---------------------3-3-----3-3----- 
A -8-8-8-8-5-5-5-5-6-6-6-6-8--8--8--8--5-5-6-6-5-5-8--- 
D -8-8-8-8-5-5-5-5-8-8-8-8-10-10-10-10-5-5-8-8-5-5-10-- 
G -----------------8-8-8-8-10-10-10-10-----8-8-----10-- 
B ----------------------------------------------------- 
E ----------------------------------------------------- 
 
Verso 2: 
E -------------------------------3-3-3-3--------------- 
A -6-6-x-x-8--6-5-6-8--8--8--8---5-5-5-5-6-6-6-6-8--8-- 
D -8-8-x-x-10-8-7-8-10-10-10-10--5-5-5-5-8-8-8-8-10-10- 
G -8-8-x-x-10-8-7-8-10-10-10-10----------8-8-8-8------- 
B ----------------------------------------------------- 
E ----------------------------------------------------- 
 
Solo: 
E -1-1-3-3-1-1----------------------------------------- 
A -3-3-5-5-3-3-4-4-3-3-1-1-3-3-1-1--------------------- 
D -3-3-5-5-3-3-6-6-5-5-3-3-5-5-3-3--------------------- 
G -------------6-6-5-5-3-3-5-5-3-3--------------------- 
B ----------------------------------------------------- 
E ----------------------------------------------------- 
 
Verso 3: 
E -6-6-6-6-3-3-3-3------------------------------------- 
A -8-8-8-8-5-5-5-5-6-6-6-6-8--8--8--8------------------ 
D -8-8-8-8-5-5-5-5-8-8-8-8-10-10-10-10----------------- 
G -----------------8-8-8-8-10-10-10-10----------------- 
B ----------------------------------------------------- 
E ----------------------------------------------------- 
 
Refrão: 
E -6-6-6-6-3-3-3-3------------------------------------- 
A -8-8-8-8-5-5-5-5-6-6-6-6-8--8--8--8------------------ 
D -8-8-8-8-5-5-5-5-8-8-8-8-10-10-10-10----------------- 
G -----------------8-8-8-8-10-10-10-10----------------- 
B ----------------------------------------------------- 
E ----------------------------------------------------- 
 
Vocalização: 
E -6-6-6-6-3-3-3-3------------------------------------- 
A -8-8-8-8-5-5-5-5-6-6-6-6-8--8--8--8------------------ 
D -8-8-8-8-5-5-5-5-8-8-8-8-10-10-10-10----------------- 
G -----------------8-8-8-8-10-10-10-10----------------- 
B ----------------------------------------------------- 
E ----------------------------------------------------- 
 
Fim: 
E -6-6-6-6-3-3-3-3------------------------------6-6---- 
A -8-8-8-8-5-5-5-5-6-6-6-6-8--8--8--8---------5---8---- 
D -8-8-8-8-5-5-5-5-8-8-8-8-10-10-10-10--3-5-3-----8---- 
G -----------------8-8-8-8-10-10-10-10----------------- 
B ----------------------------------------------------- 
E ----------------------------------------------------- 
 

    	
fixar
fixar inscrever-se

enviado porenviado por: teodoriko
cifra enviadaCorrigida por: sem correções
logo top cifrasComente
ico música do artistaMúsicas deste artista
ico curtiuCurtiu?
ico destaqueDestaque
Petaxxon Comunicação Online

Cifras.com.br - Melhor e mais completo site de cifras e tablaturas do Brasil Mais de 1 milhão de acordes de músicas cadastradas desde 2003
As informações contidas no nosso site são colaborações de seus usuários e podem conter erros, sendo assim, não nos responsabilizamos sobre nenhuma destas.

close
menos
mais
close
Cor dos acordes:

Cor da letra:

close
Alinhar acordes a direita Alinhar acordes a esquerda Alinhar acordes em baixo Alinhar acordes no topo
close
  Mostrar todos os acordes Esconder acordes muito fáceis Esconder acordes fáceis Esconder acordes intermediários
redimensionar
glossário