Cifras e Tablaturas
Fuzzy Box

Fuzzy Box

Começo do Fim (vers.2)

Cifras Cancelar Versão de Impressão

Fuzzy Box - Começo do Fim (vers.2)

Tom:

  			Intr: 
E ----------------------------------------------------- 
A ----------------------------------------------------- 
D --8---------10--------------------------------------- 
G ----8----------10------------------------------------ 
B --------6-----------8-------------------------------- 
E ------6-----------8---------------------------------- 
 
E ----------------------------------------------------- 
A -8--8--9--9--11-11-9--8--9--8------------------------ 
D -10-10-11-11-11-11-11-10-11-10----------------------- 
G -10-10-11-11-13-13-11-10-11-10----------------------- 
B ----------------------------------------------------- 
E ----------------------------------------------------- 
 
E ----------------------------------------------------- 
A -13-13-x-x-10-10-x-x-6-6-6-6-8--8-------------------- 
D -15-15-x-x-12-12-x-x-8-8-8-8-10-10------------------- 
G -15-15-x-x-12-12-x-x-8-7-8-7-10-10------------------- 
B ----------------------------------------------------- 
E ----------------------------------------------------- 
 
Verso 1: 
E -13-13-13-13-10-10-10-10----------------------------- 
A -15-15-15-15-12-12-12-12-6-6-6-6-8--8--8--8---------- 
D -15-15-15-15-12-12-12-12-8-8-8-8-10-10-10-10--------- 
G -------------------------8-8-8-8-10-10-10-10--------- 
B ----------------------------------------------------- 
E ----------------------------------------------------- 
 
Verso 2: 
E -------------------------------3-3-3-3--------------- 
A -6-6-x-x-8--6-5-6-8--8--8--8---5-5-5-5-6-6-6-6-8--8-- 
D -8-8-x-x-10-8-7-8-10-10-10-10--5-5-5-5-8-8-8-8-10-10- 
G -8-8-x-x-10-8-7-8-10-10-10-10----------8-8-8-8------- 
B ----------------------------------------------------- 
E ----------------------------------------------------- 
 
Ponte: 
E ----------------------------------------------------- 
A -13-13-x-x-10-10-x-x-6-6-6-6-8--8-------------------- 
D -15-15-x-x-12-12-x-x-8-8-8-8-10-10------------------- 
G -15-15-x-x-12-12-x-x-8-7-8-7-10-10------------------- 
B ----------------------------------------------------- 
E ----------------------------------------------------- 
 
Verso 1: 
E -13-13-13-13-10-10-10-10----------------------------- 
A -15-15-15-15-12-12-12-12-6-6-6-6-8--8--8--8---------- 
D -15-15-15-15-12-12-12-12-8-8-8-8-10-10-10-10--------- 
G -------------------------8-8-8-8-10-10-10-10--------- 
B ----------------------------------------------------- 
E ----------------------------------------------------- 
 
Verso 2: 
E -------------------------------3-3-3-3--------------- 
A -6-6-x-x-8--6-5-6-8--8--8--8---5-5-5-5-6-6-6-6-8--8-- 
D -8-8-x-x-10-8-7-8-10-10-10-10--5-5-5-5-8-8-8-8-10-10- 
G -8-8-x-x-10-8-7-8-10-10-10-10----------8-8-8-8------- 
B ----------------------------------------------------- 
E ----------------------------------------------------- 
 
 
Verso 3: 
E -6-6-6-6-3-3-3-3------------------------------------- 
A -8-8-8-8-5-5-5-5-6-6-6-6-8--8--8--8------------------ 
D -8-8-8-8-5-5-5-5-8-8-8-8-10-10-10-10----------------- 
G -----------------8-8-8-8-10-10-10-10----------------- 
B ----------------------------------------------------- 
E ----------------------------------------------------- 
 
Refrão: 
E -13-13-13-13-10-10-10-10----------------------------- 
A -15-15-15-15-12-12-12-12-6-6-6-6-8--8--8--8---------- 
D -15-15-15-15-12-12-12-12-8-8-8-8-10-10-10-10--------- 
G -------------------------8-8-8-8-10-10-10-10--------- 
B ----------------------------------------------------- 
E ----------------------------------------------------- 
 
Vocalização: 
E -13-13-13-13-10-10-10-10----------------------------- 
A -15-15-15-15-12-12-12-12-6-6-6-6-8--8--8--8---------- 
D -15-15-15-15-12-12-12-12-8-8-8-8-10-10-10-10--------- 
G -------------------------8-8-8-8-10-10-10-10--------- 
B ----------------------------------------------------- 
E ----------------------------------------------------- 
 
 

    	
fixar
fixar inscrever-se

enviado porenviado por: teodoriko
cifra enviadaCorrigida por: sem correções
logo top cifrasComente
ico música do artistaMúsicas deste artista
ico curtiuCurtiu?
ico destaqueDestaque
Petaxxon Comunicação Online

Cifras.com.br - Melhor e mais completo site de cifras e tablaturas do Brasil Mais de 1 milhão de acordes de músicas cadastradas desde 2003
As informações contidas no nosso site são colaborações de seus usuários e podem conter erros, sendo assim, não nos responsabilizamos sobre nenhuma destas.

close
menos
mais
close
Cor dos acordes:

Cor da letra:

close
Alinhar acordes a direita Alinhar acordes a esquerda Alinhar acordes em baixo Alinhar acordes no topo
close
  Mostrar todos os acordes Esconder acordes muito fáceis Esconder acordes fáceis Esconder acordes intermediários
redimensionar
glossário