Cifras e Tablaturas
Fuzzy Box

Fuzzy Box

Nosso Rumo nesse universo

Cifras Cancelar Versão de Impressão

Fuzzy Box - Nosso Rumo nesse universo

Tom: D

  			Intr: 
E -----2-2-----5-5------------------------------------- 
A -5-5-4-4-2-2-7-7-5-5-5-5----------------------------- 
G -7-7-4-4-4-4-7-7-7-7-7-7----------------------------- 
D -7-7-----4-4-----7-7-7-7----------------------------- 
B ----------------------------------------------------- 
E ----------------------------------------------------- 
Verso: 
E ------2---------5------------------------------------ 
A -5----4----2----7------------------------------------ 
G -7----4----4----7------------------------------------ 
D -7---------4----------------------------------------- 
B ----------------------------------------------------- 
E ----------------------------------------------------- 
Ponte: 
E ----------------------------------------------------- 
A -3-3-5-5--------5-7---------5------------------------ 
G -5-5-7-7--4-5-4-----5-4-5-4-------------------------- 
D -5-5-7-7--------------------------------------------- 
B ----------------------------------------------------- 
E ----------------------------------------------------- 
Refrão: 
E ---5-7-7-7-7-3-3-3-3-5-5-5-5-------------------------------------- 
A -5-7-9-9-9-9-5-5-5-5-7-7-7-7--------------------------------------- 
G -7-7-9-9-9-9-5-5-5-5-7-7-7-7--------------------------------------- 
D -7---------------------------------------------------- 
B ----------------------------------------------------- 
E ----------------------------------------------------- 
pós-Refrão: 
E ---------5-5-3-3------------------------------------- 
A -2-2-5-5-7-7-5-5------------------------------------- 
G -4-4-7-7-7-7-5-5------------------------------------- 
D -4-4-7-7--------------------------------------------- 
B ----------------------------------------------------- 
E ----------------------------------------------------- 

    	
fixar
fixar inscrever-se

enviado porenviado por: pxuxnxkx22
cifra enviadaCorrigida por: sem correções
logo top cifrasComente
ico música do artistaMúsicas deste artista
ico curtiuCurtiu?
ico destaqueDestaque
Petaxxon Comunicação Online

Cifras.com.br - Melhor e mais completo site de cifras e tablaturas do Brasil Mais de 1 milhão de acordes de músicas cadastradas desde 2003
As informações contidas no nosso site são colaborações de seus usuários e podem conter erros, sendo assim, não nos responsabilizamos sobre nenhuma destas.

close
menos
mais
close
Cor dos acordes:

Cor da letra:

close
Alinhar acordes a direita Alinhar acordes a esquerda Alinhar acordes em baixo Alinhar acordes no topo
close
  Mostrar todos os acordes Esconder acordes muito fáceis Esconder acordes fáceis Esconder acordes intermediários
redimensionar
glossário