Cifras e Tablaturas
Fytch

Fytch

In These Shadows (feat. Carmen Forbes)

Cifras Cancelar Versão de Impressão
cifras

Fytch - In These Shadows (feat. Carmen Forbes)

fixar na tela  
Exibindo: vídeo-aula ver clipes redimensionar

Tom:

  E|---------------|-----------------------| 
B|---------------|-----------------------| 
G|---------------|-----------------------| 
D|-----7--9--7---|-----7--9--7-----------| 
A|--7------------|--7--------------------| 
E|---------------|-----------------------| 

E|---------------|-----------------------| 
B|---------------|-----------------------| 
G|---------------|-----------------------| 
D|-----7--9--7---|-----7--9--7-----------| 
A|--7------------|--7-----------7--8~----| 
E|---------------|-----------------------| 

E|---------------|-----------------------| 
B|---------------|-----------------------| 
G|---------------|-----------------------| 
D|--7--9--7------|-----7--9--7-----------| 
A|---------------|--8--------------------| 
E|---------------|-----------------------| 

E|---------------|-----------------------| 
B|---------------|-----------------------| 
G|---------------|-----------------------| 
D|-----7--9--7---|-----7--9--7-----------| 
A|--8------------|--8-----------8--7~----| 
E|---------------|-----------------------| 
  

top 5 | fytch
top rock'n roll
Outras músicas do artista letras do(a) Fytch
Top cifras »Top artistas »
Petaxxon Comunicação Online
Cifras.com.br - Melhor e mais completo site de cifras e tablaturas do Brasil
Mais de 1 milhão de acordes de músicas cadastradas desde 2003
As informações contidas no nosso site são colaborações de seus usuários e podem conter erros, sendo assim, não nos responsabilizamos sobre nenhuma destas.
close
menos
mais
close
Cor dos acordes:

Cor da letra:

 

save
close
close
 
redimensionar