Cifras e Tablaturas
Gael Garcia Bernal

Gael Garcia Bernal

Everyone Knows Juanita

Cifras Cancelar Versão de Impressão

Gael Garcia Bernal - Everyone Knows Juanita

Tom:

  			Intro 

e|-----------------2-0---------------------------------0-0--| 
B|---------3-3/5---3-2-3-3h5-2-0-0h2-----9---7---5---3-2-0--| 
G|-6-6-4-6-------------4-4---2-1-1h2---9---7---6---4---2-1--| 
D|-------------------------------------------------------2--| 
A|-------------------------------------------------------2--| 
E|-------------------------------------------------------0--| 


Verse 

e|-------------------------------------------------------------------------5| 
B|---2-2---2-2---2-2---2-2---2-2---2-2---0-0---0----0-0---0-0---2-2---2-2--2| 
G|---2-2---2-2---2-2---2-2---2-2---2-2---1-1---1----1-1---1-1---2-2---2-2--2| 
D|---2-2---2-2---2-2---2-2---2-2---2-2---2-2---2----2-2---2-2---2-2---2-2--2| 
A|-0-----------0-----------0----------------------------2-----0------------0| 
E|-------0-----------0-----------0-----0-----0----0-----------------0-------| 

e|---2-2---2-2-----0-0----------------------------------------------| 
B|---3-3---3-3---0---0----2-2---2-2---2-2---2-2---2-2---2-2---0-0---| 
G|---2-2---2-2---1---1----2-2---2-2---2-2---2-2---2-2---2-2---1-1---| 
D|-0-----4-----2----------2-2---2-2---2-2---2-2---2-2---2-2---2-2---| 
A|----------------------0-----------0-----------0-----------2-----2-| 
E|----------------------------0-----------0-----------0-----------0-| 

e|---------------------------2-----------------------------| 
B|---0-0---0-0-----2-2-------3-----0-------------2-----2---| 
G|---1-1---1-1---2---2-----2-------1-----1-2-1-----2---2---| 
D|---2-2-0-------2---2---4-------2-----2-------2-----2-2---| 
A|-2-----------4---------------------0-----------------0---| 
E|-----------------------------0---------------------------| 

Lyrics: 

Well, everyone knows Juanita 
Her eyes each a different color 
Her teeth stick out and her chin goes in 
And her...knuckles they drag on the floor 

(Those aren't the words) 
(There are children present) 

Her hair is like a brier 
She stands in a bow-legged stance 
And if I weren't so ugly 
She'd possibly give me a chance 

**************************** 
| /   Slide up 
| h   Hammer-on 
**************************** 
    	
fixar
fixar inscrever-se

enviado porenviado por: adalgomes
cifra enviadaCorrigida por: sem correções
logo top cifrasComente
ico música do artistaMúsicas deste artista
ico curtiuCurtiu?
ico destaqueDestaque
Petaxxon Comunicação Online

Cifras.com.br - Melhor e mais completo site de cifras e tablaturas do Brasil Mais de 1 milhão de acordes de músicas cadastradas desde 2003
As informações contidas no nosso site são colaborações de seus usuários e podem conter erros, sendo assim, não nos responsabilizamos sobre nenhuma destas.

close
menos
mais
close
Cor dos acordes:

Cor da letra:

close
Alinhar acordes a direita Alinhar acordes a esquerda Alinhar acordes em baixo Alinhar acordes no topo
close
  Mostrar todos os acordes Esconder acordes muito fáceis Esconder acordes fáceis Esconder acordes intermediários
redimensionar
glossário