Cifras e Tablaturas
Garoto

Garoto

Jorge Do Fusa Tablatura Verificada

Cifras Cancelar Versão de Impressão
cifras

Garoto - Jorge Do Fusa

fixar na tela  
Exibindo: vídeo-aula ver clipes redimensionar

Tom:

  . 
-------------------------------2--0--2/5------5-----------------  
-------------2--2--0--2--------0-------------3------------------  
-------------2--------1--------0------------4-------------------  
-------------0--------0--------0--------------------------------  
-0--4--2-----------------2----------------0---------------------  
----------2-----------1-----0-----------------------------------  



-5--7--5--7--5--7--6--5--4--3----------------2------------------  
----7--7--7--7--7--6--5--4--5--5-------------4------------------  
----6--6--6--6--6--5--4--3--3-----4----------2------------------  
----0--------------5--4--3----------5---------------------------  
----------------------------3----------3--2---------------------  
----------------------------------------------------------------  


-------5--3--2-----0-------------5--9--9------------------------  
-------------2--2--3----------7-----9--9------------------------  
-------------3-----2--7--6h7--------7--7------------------------  
----------------------------------------------------------------  
-2-----------------2--------------------------------------------  
----0--------2----------------------0---------------------------  


-6--7--8--9--7--------------------------------------------------  
----------------10--8----------------------------------------2--  
-----------------------10--8p6------2p0----------------------2--  
--------------------------------9\-------3--1----------------0--  
-----------------------------------------------4--2p0-----------  
-------------------------------------------------------3--2-----  




Parte 1  

--------------------------------------2--0--2/5------5----------  
---------------2--2--0--2---------------------------3-----3-----  
---------------2--------1--------------------------4----4-------  
---------------0--------0--0------------------------------------  
-0--3/4--2--------------------1--2----------------0-------------  
------------2-----------1-----------0---------------------------  


-5--7--5--7--5--7--6--5--4--3----------------2------------------  
----7--7--7--7--7--6--5--4--5--5-------------4------------------  
----6--6--6--6--6--5--4--3--3-----4----------2--2---------------  
----0--------------5--4--3----------5---------------------------  
----------------------------3----------3--2---------------------  
----------------------------------------------------------------  


-------5--3-------2--0--------2--5/7----7--5------5--3----------  
-----------------3------2--3---------------------0---------4----  
----------------3-------2-----------------------0---------6-----  
---------------------------------------------------------5------  
-2-----------0--3---------------------------------------0-------  
----0-------------------2--------------7------0-----------------  


------0--0--0--0------------------------------------------------  
--7---0--0--0--0------------------------------------------------  
------2--2--2--2------------------------------------------------  
----------------------------------------------------------------  
------5--------5------------------------------------------------  
----------------------------------------------------------------  


Parte 2  


-------------------12--12--10------12-----8--8--6--8--------5---  
-------------------12--12--------12-------8--8--8--8-------6----  
-------------------10--10------10---------6--6--6--6------5-----  
----------------0-------------------------7--------------7------  
-0--1--2--3--4-------------------------0--------------5---------  
----------------------------------------------------------------  


----------------------------------------------------------------  
--8--6--5------------6--------3--6--5---------------------------  
-----------7--6--7---------3--------3---------------------------  
------------------------5---------------------------------------  
------------------------------------3---------------------------  
--------------------3-------------------------------------------  


-------------------0--------------------------------------------  
--1--------1--1h3-----3-----------------------------------------  
--------3----------------2--------------------------------------  
-----3-------------------2--------------------------------------  
----------------------------------------------------------------  
--3-----------3----------1--------------------------------------  


-------------------------------------------------------0--------  
--------------2--3--5---------2-----2-----3-----4---------------  
--2--3--4--5--------4-----4--------2---2-----2-----2------------  
--------------------2--2----------------------------------------  
---------------------------------0--------------------0---------  
--------------------4--------4----------------------------------  



Parte modificada  


-----------------------------------2--0--2/5------5-----5-------  
---------------2--2--0--2------------------------3--------------  
---------------2--------1-----------------------4----4----------  
---------------0--------0--0------------------------------------  
-0--3/4--2-------------------------------------0----------------  
------------2-----------1-----1--0------------------------------  

  

top 5 | garoto
top música clássica
Outras músicas do artista letras do(a) Garoto
Top cifras »Top artistas »
Petaxxon Comunicação Online
Cifras.com.br - Melhor e mais completo site de cifras e tablaturas do Brasil
Mais de 1 milhão de acordes de músicas cadastradas desde 2003
As informações contidas no nosso site são colaborações de seus usuários e podem conter erros, sendo assim, não nos responsabilizamos sobre nenhuma destas.
close
menos
mais
close
Cor dos acordes:

Cor da letra:

 

save
close
close
 
redimensionar