Cifras e Tablaturas
Gerard Way

Gerard Way

Into The Cave We Wander

Cifras Cancelar Versão de Impressão
cifras

Gerard Way - Into The Cave We Wander

fixar na tela  
Exibindo: vídeo-aula ver clipes redimensionar
  
Intro 
    E 
e|-------------------------------------------------------------------------------| 
B|------------0--0---------------------------------------------------------------| 
G|---------------------(x2)------------------------------------------------------| 
D|----2----2---2---2------2------------------------------------------------------| 
A|-------------------------------------------------------------------------------| 
E|-0-----0-----------------0-----------------------------------------------------| 

       A 
e|-------------------------------------------------------------------------------| 
B|-----2--2------------2--2------------------------------------------------------| 
G|-------------------------------------------------------------------------------| 
D|---2---2--2----2---2--2---2-----2----------------------------------------------| 
A|-0-----------0---0------------0------------------------------------------------| 
E|-------------------------------------------------------------------------------| 

        B 
e|-------------------------------------------------------------------------------| 
B|-------3----3---------------3-----3--------------------------------------------| 
G|-------------------------------------------------------------------------------| 
D|---3-----3----3-----3-----3----3---3-------0----(back to the beginning)--------| 
A|-2---------------2-----2----------------2----(and stay on E for like 3 measures| 
E|-------------------------------------------------------------------------------| 

It's the same for the verse, hopefully you've figured out the picking pattern. 

Now this is where stuff gets complicated. 

Chorus 
          A          F#m            A                E 
e|---------------------------------------------------------------------------| 
B|----2---2-------------2--2----------2---2-------------0---0----------------| 
G|---------------------------------------------------------------------------| 
D|---2--2---2---2-----4--4--4--4----2---2--2---2-----2----2---2----2---------| 
A|-0----------0-------------------0----------0-------------------------------| 
E|------------------2--------2---------------------0-------------0-----------| 

        C#m         Abm                    Ab             F#m 
e|---------------------------------------------------------------------------| 
B|-----5--5------------4---4--------------4---4-------------2---2------------| 
G|---------------------------------------------------------------------------| 
D|---6--6--6---6-----6---6---6---6------6---6---6--6------4---4--4----4------| 
A|-4---------4---------------------------------------------------------------| 
E|-----------------4-----------4------4-----------4-----2-----------2--------| 

         A                 B              E 
e|----------------------------------------------------------------------------------| 
B|-----2---2-------------4---4------------0---0-------------------------------------| 
G|----------------------------------------------------------------------------------| 
D|---2---2--2---2------4---4---4---4-----2--2---2------then it repeats and stuff----| 
A|-0-----------------2-----------2--------------------------------------------------| 
E|------------0------------------------0--------------------------------------------| 

everything basically repeats after that except the bridge i don't even know what 
the bridge is. Just like make some noises and you'll be good. 

verse 2 
    E 
e|-------------------------------------------------------------------------------| 
B|------------0--0---------------------------------------------------------------| 
G|---------------------(x2)------------------------------------------------------| 
D|----2----2---2---2------2------------------------------------------------------| 
A|-------------------------------------------------------------------------------| 
E|-0-----0-----------------0-----------------------------------------------------| 

       A 
e|-------------------------------------------------------------------------------| 
B|-----2--2------------2--2------------------------------------------------------| 
G|-------------------------------------------------------------------------------| 
D|---2---2--2----2---2--2---2-----2----------------------------------------------| 
A|-0-----------0---0------------0------------------------------------------------| 
E|-------------------------------------------------------------------------------| 

        B 
e|-------------------------------------------------------------------------------| 
B|-------3----3---------------3-----3--------------------------------------------| 
G|-------------------------------------------------------------------------------| 
D|---3-----3----3-----3-----3----3---3-------0----(back to the beginning)--------| 
A|-2---------------2-----2----------------2----(and stay on E for like 3 measures| 
E|-------------------------------------------------------------------------------| 

Chorus 
          A          F#m            A                E 
e|---------------------------------------------------------------------------| 
B|----2---2-------------2--2----------2---2-------------0---0----------------| 
G|---------------------------------------------------------------------------| 
D|---2--2---2---2-----4--4--4--4----2---2--2---2-----2----2---2----2---------| 
A|-0----------0-------------------0----------0-------------------------------| 
E|------------------2--------2---------------------0-------------0-----------| 

        C#m         Abm                    Ab             F#m 
e|---------------------------------------------------------------------------| 
B|-----5--5------------4---4--------------4---4-------------2---2------------| 
G|---------------------------------------------------------------------------| 
D|---6--6--6---6-----6---6---6---6------6---6---6--6------4---4--4----4------| 
A|-4---------4---------------------------------------------------------------| 
E|-----------------4-----------4------4-----------4-----2-----------2--------| 

         A                 B              E 
e|----------------------------------------------------------------------------------| 
B|-----2---2-------------4---4------------0---0-------------------------------------| 
G|----------------------------------------------------------------------------------| 
D|---2---2--2---2------4---4---4---4-----2--2---2------then it repeats and stuff----| 
A|-0-----------------2-----------2--------------------------------------------------| 
E|------------0------------------------0--------------------------------------------| 
  

cifra enviadasem correções
enviado porenviada por:brunblazkowski
top 5 | gerard way
top rock'n roll
Outras músicas do artista letras do(a) Gerard Way
Top cifras »Top artistas »
Petaxxon Comunicação Online
Cifras.com.br - Melhor e mais completo site de cifras e tablaturas do Brasil
Mais de 1 milhão de acordes de músicas cadastradas desde 2003
As informações contidas no nosso site são colaborações de seus usuários e podem conter erros, sendo assim, não nos responsabilizamos sobre nenhuma destas.
close
menos
mais
close
Cor dos acordes:

Cor da letra:

 

save
close
close
 
redimensionar