Cifras e Tablaturas
Cifras Cancelar Versão de Impressão
cifras

Glen Hansard And Marketa Irglova - The Hill

fixar na tela  
Exibindo: vídeo-aula ver clipes redimensionar

Tom:

  
E|-0-------------------------------------------------| 
B|-------3-----1------0-----------0-----0------------| 
G|----0-----0-----0------0--2--0-----0-----0--2--0---| 
D|-2------------------1-----------------0------------| 
A|---------------------------------------------------| 
E|---------------------------------------------------| 


E|--------------------------------------| 
B|-------------0-----------------0------| 
G|-0-----2-----------0-----2------------| 
D|----2-----2-----2-----2-----2-----2---| 
A|-3-----------------3------------------| 
E|--------------------------------------| 
  

top 5 | glen hansard and marketa irglova
top
Outras músicas do artista letras do(a) Glen Hansard And Marketa Irglova
4.
Lies
Top cifras »Top artistas »
Petaxxon Comunicação Online
Cifras.com.br - Melhor e mais completo site de cifras e tablaturas do Brasil
Mais de 1 milhão de acordes de músicas cadastradas desde 2003
As informações contidas no nosso site são colaborações de seus usuários e podem conter erros, sendo assim, não nos responsabilizamos sobre nenhuma destas.
close
menos
mais
close
Cor dos acordes:

Cor da letra:

 

save
close
close
 
redimensionar