Cifras e Tablaturas
Gorefest

Gorefest

From Ignorance To Oblivion

Cifras Cancelar Versão de Impressão
cifras

Gorefest - From Ignorance To Oblivion

fixar na tela  
Exibindo: vídeo-aula ver clipes redimensionar

Tom:

  Intro  
(0:10) 
B|-------------------| 
G|-------------------| 
D|-------------------| 
A|-------------------| 
E|---5---5---5---4-5-| 
B|-0-3-0-3-0-3-0-2-3-| 
pm .   .   .   . 

verse 1  
(0:12) 
B|-------------------|-------------------|-------------------|-------------------| 
G|-------------------|-------------------|-------------------|-------------------| 
D|-------------6--5--|-------------6--5--|-------------6--5--|-------------6--5--| 
A|-------------6--5--|-------------6--5--|-------------6--5--|-------------6--5--| 
E|-2---4-5-4---4--3--|-2---4-5-4---4--3--|-2---4-5-4---4--3--|-2---4-5-4---4--3--| 
B|-0---2-3-2-0-------|-0---2-3-2-0-------|-0---2-3-2-0-------|-0---2-3-2-0-------| 
pm     . . . .             . . . .             . . . .             . . . . 

verse 2  
(0:24) 
B|------------------------------|------------------------------| 
G|------------------------------|------------------------------| 
D|------------------------------|------------------------------| 
A|-4--4-4--4--4-4---------------|-4--4-4--4--4-4---------------| 
E|-4--4-4--4--4-4---------4~-3~-|-4--4-4--4--4-4---------4~-3~-| 
B|-2--2-2--2--2-2-2-3-2-0-------|-2--2-2--2--2-2-2-3-2-0-------| 

B|------------------------------|------------------------------| 
G|------------------------------|------------------------------| 
D|------------------------------|------------------------------| 
A|-4--4-4--4--4-4---------------|-4--4-4--4--4-4---------------| 
E|-4--4-4--4--4-4---------4~-3~-|-4--4-4--4--4-4---------4~-3~-| 
B|-2--2-2--2--2-2-2-3-2-0-------|-2--2-2--2--2-2-2-3-2-0-------| 

verse 3  
(0:36) 
B|---------------------------|---------------------------| 
G|---------------------------|---------------------------| 
D|---------------------------|---------------------------| 
A|-------------4-5-4---------|-------------4-5-4---------| 
E|-2-------4-5-------5-3h4p3-|-2----2--4-5-------5-3h4p3-| 
B|-0-------------------------|-0--0-0--------------------| 
pm                                .  

B|---------------------------|---------------------------| 
G|---------------------------|---------------------------| 
D|---------------------------|---------------------------| 
A|-------------4-5-4---------|-------------4-5-4---------| 
E|-2----2--4-5-------5-3h4p3-|-2----2--4-5-------5-3h4p3-| 
B|-0--0-0--------------------|-0--0-0--------------------| 
pm    .                           . 

verse 2  
(0:48) 
B|------------------------------|------------------------------| 
G|------------------------------|------------------------------| 
D|------------------------------|------------------------------| 
A|-4--4-4--4--4-4---------------|-4--4-4--4--4-4---------------| 
E|-4--4-4--4--4-4---------4~-3~-|-4--4-4--4--4-4---------4~-3~-| 
B|-2--2-2--2--2-2-2-3-2-0-------|-2--2-2--2--2-2-2-3-2-0-------| 

B|------------------------------|------------------------------| 
G|------------------------------|------------------------------| 
D|------------------------------|------------------------------| 
A|-4--4-4--4--4-4---------------|-4--4-4--4--4-4---------------| 
E|-4--4-4--4--4-4---------4~-3~-|-4--4-4--4--4-4---------4~-3~-| 
B|-2--2-2--2--2-2-2-3-2-0-------|-2--2-2--2--2-2-2-3-2-0-------| 

verse 3  
(1:00) 
B|---------------------------|---------------------------| 
G|---------------------------|---------------------------| 
D|---------------------------|---------------------------| 
A|-------------4-5-4---------|-------------4-5-4---------| 
E|-2-------4-5-------5-3h4p3-|-2----2--4-5-------5-3h4p3-| 
B|-0-------------------------|-0--0-0--------------------| 
pm                                .  
  
B|---------------------------|---------------------------| 
G|---------------------------|---------------------------| 
D|---------------------------|---------------------------| 
A|-------------4-5-4---------|-------------4-5-4---------| 
E|-2----2--4-5-------5-3h4p3-|-2----2--4-5-------5-3h4p3-| 
B|-0--0-0--------------------|-0--0-0--------------------| 
pm    .                           . 

Chorus  
(1:13) 
B|--------------------|---------------------|--------------------|---------------------| 
G|--------------------|---------------------|--------------------|---------------------| 
D|--------------------|---------------------|--------------------|---------------------| 
A|--------------------|---------------------|--------------------|---------------------| 
E|-----------3--3-2-1-|------1--1------1----|-----------3--3-2-1-|------1--1------1----| 
B|-0--0-3-0-----------|-3--3------3--3---3--|-0--0-3-0-----------|-3--3------3--3---3--| 


B|--------------------|---------------------|--------------------|---------------------| 
G|--------------------|---------------------|--------------------|---------------------| 
D|--------------------|---------------------|--------------------|---------------------| 
A|--------------------|---------------------|--------------------|---------------------| 
E|-----------3--3-2-1-|------1--1------1----|-----------3--3-2-1-|------1--1------1----| 
B|-0--0-3-0-----------|-3--3------3--3---3--|-0--0-3-0-----------|-3--3------3--3---3--| 

verse 1  
(1:38) 
B|-------------------|-------------------|-------------------|-------------------| 
G|-------------------|-------------------|-------------------|-------------------| 
D|-------------6--5--|-------------6--5--|-------------6--5--|-------------6--5--| 
A|-------------6--5--|-------------6--5--|-------------6--5--|-------------6--5--| 
E|-2---4-5-4---4--3--|-2---4-5-4---4--3--|-2---4-5-4---4--3--|-2---4-5-4---4--3--| 
B|-0---2-3-2-0-------|-0---2-3-2-0-------|-0---2-3-2-0-------|-0---2-3-2-0-------| 
pm     . . . .             . . . .             . . . .             . . . . 

verse 2  
(1:50) 
B|------------------------------|------------------------------| 
G|------------------------------|------------------------------| 
D|------------------------------|------------------------------| 
A|-4--4-4--4--4-4---------------|-4--4-4--4--4-4---------------| 
E|-4--4-4--4--4-4---------4~-3~-|-4--4-4--4--4-4---------4~-3~-| 
B|-2--2-2--2--2-2-2-3-2-0-------|-2--2-2--2--2-2-2-3-2-0-------| 

B|------------------------------|------------------------------| 
G|------------------------------|------------------------------| 
D|------------------------------|------------------------------| 
A|-4--4-4--4--4-4---------------|-4--4-4--4--4-4---------------| 
E|-4--4-4--4--4-4---------4~-3~-|-4--4-4--4--4-4---------4~-3~-| 
B|-2--2-2--2--2-2-2-3-2-0-------|-2--2-2--2--2-2-2-3-2-0-------| 

verse 3  
(2:02) 
B|---------------------------|---------------------------| 
G|---------------------------|---------------------------| 
D|---------------------------|---------------------------| 
A|-------------4-5-4---------|-------------4-5-4---------| 
E|-2-------4-5-------5-3h4p3-|-2----2--4-5-------5-3h4p3-| 
B|-0-------------------------|-0--0-0--------------------| 
pm                                .  

B|---------------------------|---------------------------| 
G|---------------------------|---------------------------| 
D|---------------------------|---------------------------| 
A|-------------4-5-4---------|-------------4-5-4---------| 
E|-2----2--4-5-------5-3h4p3-|-2----2--4-5-------5-3h4p3-| 
B|-0--0-0--------------------|-0--0-0--------------------| 
pm    .                           . 
  
Chorus  
(2:14) 
B|--------------------|---------------------|--------------------|---------------------| 
G|--------------------|---------------------|--------------------|---------------------| 
D|--------------------|---------------------|--------------------|---------------------| 
A|--------------------|---------------------|--------------------|---------------------| 
E|-----------3--3-2-1-|------1--1------1----|-----------3--3-2-1-|------1--1------1----| 
B|-0--0-3-0-----------|-3--3------3--3---3--|-0--0-3-0-----------|-3--3------3--3---3--| 


B|--------------------|---------------------|--------------------|---------------------| 
G|--------------------|---------------------|--------------------|---------------------| 
D|--------------------|---------------------|--------------------|---------------------| 
A|--------------------|---------------------|--------------------|---------------------| 
E|-----------3--3-2-1-|------1--1------1----|-----------3--3-2-1-|------1--1------1----| 
B|-0--0-3-0-----------|-3--3------3--3---3--|-0--0-3-0-----------|-3--3------3--3---3--| 

Bridge under solo 1  
(2:40) 
B|------------------|------------------|------------------|-------------------| 
G|------------------|------------------|------------------|-------------------| 
D|------------------|------------------|------------------|-------------------| 
A|------------------|------------------|------------------|-------------------| 
E|-2---------5---5--|-2---------5---5--|-2---------5---5--|---5---5---5---4/5-| 
B|-0-------0-3-0-3--|-0-------0-3-0-3--|-0-------0-3-0-3--|-0-3-0-3-0-3-0-2/3-| 
pm         .   .              .   .              .   .      .   .   .   . 

(2:52) 
B|-------------------|-------------------|-------------------|-------------------------| 
G|-------------------|-------------------|-------------------|-------------------------| 
D|-------------------|-------------------|-------------------|-------------------------| 
A|-------------------|-------------------|-------------------|-------------------------| 
E|-2--2--2----5---5--|-2--2--2----5---5--|-2--2--2----5---5--|-2--2----5---5---5---4-5-| 
B|-0--0--0--0-3-0-3--|-0--0--0--0-3-0-3--|-0--0--0--0-3-0-3--|-0--0--0-3-0-3-0-3-0-2/3-| 
pm          .   .               .   .               .   .            .   .   .   . 

(3:04) 
Under solo 2 
B|------------------------------|-----------------------------| 
G|------------------------------|-----------------------------| 
D|------------------------------|-----------------------------| 
A|------------------------------|-----------------------------| 
E|-2----------------------5---5-|-----------------------5---5-| 
B|-0--0-0-0-0-0-0-0-0-0-0-3-0-3-|-0-0-0-0-0-0-0-0-0-0-0-3-0-3-| 
pm                      .   .                         .   . 

B|-----------------------------|-------------------------------| 
G|-----------------------------|-------------------------------| 
D|-----------------------------|-------------------------------| 
A|-----------------------------|-------------------------------| 
E|-----------------------5---5-|---------------5---5---5---4/5-| 
B|-0-0-0-0-0-0-0-0-0-0-0-3-0-3-|-0-0-0-0-0-0-0-3-0-3-0-3-0-2/3-| 
pm                      .   .                .   .   .   . 
  
Bridge  
(3:16) 
B|------------------|------------------|------------------|-------------------| 
G|------------------|------------------|------------------|-------------------| 
D|------------------|------------------|------------------|-------------------| 
A|------------------|------------------|------------------|---------------5-6-| 
E|-2---------5---5--|-2---------5---5--|-2---------5---5--|---5---6---5---5-6-| 
B|-0-------0-3-0-3--|-0-------0-3-0-3--|-0-------0-3-0-3--|-0-3-0-4-0-3-0-3-4-| 
pm         .   .              .   .              .   .      .   .   .   . 

Interlude  
(3:29) 
B|-------------------|-------------------|-------------------|-------------------| 
G|-------------------|-------------------|-------------------|-------------------| 
D|-------------------|-------------------|-------------------|-------------------| 
A|-7--------7--------|-6--------6--------|-10-------10-------|-9--------9--------| 
E|-7--------7--------|-6--------6--------|-------------------|-------------------| 
B|-5--------5--------|-4--------4--------|-8--------8--------|-7--------7--------| 

B|-------------------|-------------------|-------------------|-------------------| 
G|-------------------|-------------------|-------------------|-------------------| 
D|-------------------|-------------------|-------------------|-------------------| 
A|-7--------7--------|-6--------6--------|-10-------10-------|-9--------9--------| 
E|-7--------7--------|-6--------6--------|-------------------|-------------------| 
B|-5--------5--------|-4--------4--------|-8--------8--------|-7--------7--------| 

(3:55)  
Under solo 3 
B|-------------------|-------------------|-------------------|-------------------| 
G|-------------------|-------------------|-------------------|-------------------| 
D|-------------------|-------------------|-------------------|-------------------| 
A|-7--------7--------|-6--------6--------|-10-------10-------|-9--------9--------| 
E|-7--------7--------|-6--------6--------|-------------------|-------------------| 
B|-5--------5--------|-4--------4--------|-8--------8--------|-7--------7--------| 

B|-------------------|-------------------|-------------------|-------------------| 
G|-------------------|-------------------|-------------------|-------------------| 
D|-------------------|-------------------|-------------------|-------------------| 
A|-7--------7--------|-6--------6--------|-10-------10-------|-9--------9--------| 
E|-7--------7--------|-6--------6--------|-------------------|-------------------| 
B|-5--------5--------|-4--------4--------|-8--------8--------|-7--------7--------| 

B|-------------------|-------------------|-------------------|-------------------| 
G|-------------------|-------------------|-------------------|-------------------| 
D|-------------------|-------------------|-------------------|-------------------| 
A|-7--------7--------|-6--------6--------|-10-------10-------|-9--------9--------| 
E|-7--------7--------|-6--------6--------|-------------------|-------------------| 
B|-5--------5--------|-4--------4--------|-8--------8--------|-7--------7--------| 

B|-------------------|-------------------|-------------------|--------------------| 
G|-------------------|-------------------|-------------------|--------------------| 
D|-------------------|-------------------|-------------------|--------------------| 
A|-7--------7--------|-6--------6--------|-10-------10-------|-9----9----9----9---| 
E|-7--------7--------|-6--------6--------|-------------------|--------------------| 
B|-5--------5--------|-4--------4--------|-8--------8--------|-7----7----7----7---| 

Ending  
(4:56) 
B|---------------------| 
G|---------------------| 
D|---------------------| 
A|---------------------| 
E|---5---5---5---4-5-2-| 
B|-0-3-0-3-0-3-0-2-3-0-| 
pm .   .   .   . 


************************************ 

| .  Palm mute 
| ~  Vibrato 
| h  Hammer-on 
| p  Pull-off 
| /  Slide up 

************************************ 
  

top 5 | gorefest
top rock'n roll
Outras músicas do artista letras do(a) Gorefest
Top cifras »Top artistas »
Petaxxon Comunicação Online
Cifras.com.br - Melhor e mais completo site de cifras e tablaturas do Brasil
Mais de 1 milhão de acordes de músicas cadastradas desde 2003
As informações contidas no nosso site são colaborações de seus usuários e podem conter erros, sendo assim, não nos responsabilizamos sobre nenhuma destas.
close
menos
mais
close
Cor dos acordes:

Cor da letra:

 

save
close
close
 
redimensionar