Cifras e Tablaturas
Grand Magus

Grand Magus

Steel Versus Steel

Cifras Cancelar Versão de Impressão
cifras

Grand Magus - Steel Versus Steel

fixar na tela  
Exibindo: vídeo-aula ver clipes redimensionar
  
Riff A 
C |--0-------------|--0-------------|----------------|----------------| 
G |----1-----1-----|----1-----1-----|--1-------1-----|1---------------| 
D#|------2-----2---|------2-----2---|----0-------0---|2---------------| 
A#|--------2-----2-|--------2-----2-|------2-------0-|2---------------| 
F |0---------------|0---------------|3-------2-------|0---------------| 
C |----------------|----------------|----------------|----------------| 

Riff B                                             
C |--------------------------|--------------------------| 
G |--------------------------|--------------------------| 
D#|9-9-------7-9-9-----------|12-----12-----7-----7-----| 
A#|7-7-------5-7-7-----------|10-----9------5-----4-----| 
F |----0-0-0-------0-0-0-0-0-|-----0------0-----0---0-0-| 
C |--------------------------|--------------------------| 

Riff C 
C |------|------------------------------------------------------------------| 
G |------|------------------------------------------------------------------| 
D#|----2-|------------------------------------------------------------------| 
A#|----2-|2-2-2-2-2-2-2-2-2-2-2-2-2-2-2-2-2-2-2-2-2-2-2-2-2-2-2-2-2-2-2-2-2-| 
F |3-2-0-|0-0-0-0-0-0-0-0-0-0-0-0-0-0-0-0-0-0-0-0-0-0-0-0-0-0-0-0-0-0-0-0-0-| 
C |------|------------------------------------------------------------------| 

Riff D 
C |-------------------------------|-------------------------------|--------|------------------------------| 
G |-------------------------------|-------------------------------|--------|------------------------------| 
D#|9-9----------------------------|9-9----------------------------|5-------|9-----------------------------| 
A#|7-7----------------------------|7-7----------------------------|5---5---|7-----------------------------| 
F |----0-0-0-0-0-0-0-0-0-0-0-0-0-0|----0-0-0-0-0-0-0-0-0-0-0-0-0-0|3---5---|--0-0-0-0-0-0-0-0-0-0-0-0-0-0-| 
C |-------------------------------|-------------------------------|----3---|------------------------------| 

Riff D alternate ending 
C |----------------------| 
G |----------------------| 
D#|9-9---9-------------2-| 
A#|7-7-5-7-------------2-| 
F |--------0-0-0-------0-| 
C |--------------3-x-x---| 

Riff E 
C |--------------|--------------|--------------------------------| 
G |--------------|--------------|--------------------------------| 
D#|----------7---|----------7---|--------------------------------| 
A#|10---10---7---|10---10---7---|10---10---12---14---------------| 
F |8--x-7--x-5---|8--x-7--x-5---|8--x-7--x-10-x-11---2---------2-| 
C |--------------|--------------|--------------------0-0-0-0-0-0-| 

Riff F            
C |------------------------------|------------------------------| 
G |------------------------------|------------------------------| 
D#|------------------------------|------------------------------| 
A#|9-9-----9-------7-----9-------|9-9-----9-------7-----9-------| 
F |7-7-----7-------5-----7-------|7-7-----7-------5-----7-------| 
C |----0-0---0-0-0---0-0---0-0-0-|----0-0---0-0-0---0-0---0-0-0-| 

C |------------------------------|-----------------------------------| 
G |------------------------------|-----------------------------------| 
D#|------------------------------|-----------------------------------| 
A#|9-9-----9-------7-----9-------|10------------12-------------------| 
F |7-7-----7-------5-----7-------|8-8-8-8-8-8-8-10-10-10-10-10-10-10-| 
C |----0-0---0-0-0---0-0---0-0-0-|-----------------------------------| 

Riff G            
C |--------------|----------|------------------------------| 
G |--------------|----------|------------------------------| 
D#|9-9-7-9-------|----------|------------------------------| 
A#|7-7-5-7-------|7-----7---|------------------------------| 
F |--------0-0-0-|8-x-x-7---|5-5-3-5-----------------------| 
C |--------------|--------8-|3-3-1-3-3-3-3-3-3-3-3-3-3-3-3-| 

C |--------------|----------|------------------------------| 
G |--------------|----------|------------------------------| 
D#|9-9-7-9-------|----------|------------------------------| 
A#|7-7-5-7-------|7-----7---|------------------------------| 
F |--------0-0-0-|8-x-x-7---|5-5-3-5-----------------------| 
C |--------------|--------8-|3-3-1-3-3-3-3-3-3-3-3-3-3-3-3-| 


************************************ 

| x   Dead note 

************************************ 
  

top 5 | grand magus
top rock'n roll
Outras músicas do artista letras do(a) Grand Magus
Top cifras »Top artistas »
Petaxxon Comunicação Online
Cifras.com.br - Melhor e mais completo site de cifras e tablaturas do Brasil
Mais de 1 milhão de acordes de músicas cadastradas desde 2003
As informações contidas no nosso site são colaborações de seus usuários e podem conter erros, sendo assim, não nos responsabilizamos sobre nenhuma destas.
close
menos
mais
close
Cor dos acordes:

Cor da letra:

 

save
close
close
 
redimensionar