Cifras e Tablaturas
Grand Magus

Grand Magus

Varangian

Cifras Cancelar Versão de Impressão
cifras

Grand Magus - Varangian

fixar na tela  
Exibindo: vídeo-aula ver clipes redimensionar
  
N.B. C tuning, but with a dropped low C (to A#) 

Riff A1 
C |-----------------------------|-----------------------------| 
G |-----------------------------|-----------------------------| 
D#|-----------------------------|-----------------------------| 
A#|--3p2p0---0-2-3-3-3p2p0---0--|--3p2p0---0-2-3-5-------5----| 
F |--------3---------------3----|--------3-------3---0---3----| 
A#|0----------------------------|0----------------------------| 

Riff A2 
C |-----------------------------|-----------------------------| 
G |-----------------------------|-----------------------------| 
D#|-----------------------------|-----------------------------| 
A#|--3p2p0---0-2-3-3-3p2p0---0--|--3p2p0---0-2-3-5-------7----| 
F |--------3---------------3----|--------3-------3---0---5----| 
A#|0----------------------------|0----------------------------| 

Riff B 
C |------------------------|------------------------| 
G |------------------------|------------------------| 
D#|------------------------|------------------------| 
A#|7-----7-----7-----5-----|------------------------| 
F |5-----5-----5-----3-----|5-5-5-5-5-5-3-3-3-2-----| 
A#|--0-0---0-0---0-0-------|5-5-5-5-5-5-3-3-3-2-----| 

Riff C 
C |-------------------------------------------------------| 
G |-----------------------------------------10-10-10-10---| 
D#|2--2--2--2----6--6--6--6----9--9--9--9---9--9--9--9----| 
A#|2--2--2--2----7--7--7--7----7--7--7--7---7--7--7--7----| 
F |0--0--0--0----0--0--0--0----0--0--0--0---0--0--0--0----| 
A#|-------------------------------------------------------| 

Riff D 
C |----------------|----------------------------------| 
G |----------------|----------------------------------| 
D#|7---10--5---7---|----------------------------------| 
A#|7---10--5---7---|----------------------------------| 
F |5---8---3---5---|>8-8-8-8->8-8-8-8->5-5-5-5->7-----| 
A#|----------------|>8-8-8-8->8-8-8-8->5-5-5-5->7-----| 

C |----------------|----------------------------------|----------------------------------------------------| 
G |----------------|----------------------------------|----------------------------------------------------| 
D#|7---10--5---7---|----------------------------------|----------------------------------------------------| 
A#|7---10--5---7---|----------------------------------|----------------------------------------------------| 
F-|5---8---3---5---|>8-8-8-8->8-8-8-8->8-8-8->8-8-8-8-|>10-10-10-10->10-10-10-10->10-10-10-10->10-10-10-10-| 
A#|----------------|>8-8-8-8->8-8-8-8->8-8-8->8-8-8-8-|>10-10-10-10->10-10-10-10->10-10-10-10->10-10-10-10-| 

From start of solo play all riffs 1 tone higher and omit open chugs. 

************************************ 

| p   Pull-off 
| >   Accented note 

************************************ 
  

top 5 | grand magus
top rock'n roll
Outras músicas do artista letras do(a) Grand Magus
Top cifras »Top artistas »
Petaxxon Comunicação Online
Cifras.com.br - Melhor e mais completo site de cifras e tablaturas do Brasil
Mais de 1 milhão de acordes de músicas cadastradas desde 2003
As informações contidas no nosso site são colaborações de seus usuários e podem conter erros, sendo assim, não nos responsabilizamos sobre nenhuma destas.
close
menos
mais
close
Cor dos acordes:

Cor da letra:

 

save
close
close
 
redimensionar