Cifras e Tablaturas
Great Lake Swimmers

Great Lake Swimmers

This Is Not Like Home

Cifras Cancelar Versão de Impressão
cifras

Great Lake Swimmers - This Is Not Like Home

fixar na tela  
Exibindo: vídeo-aula ver clipes redimensionar
  
Intro 

    Am             Fmaj7            C 
e|-----------------------------------------------------------------| 
B|--1-----1---------------1---------------1-----1--1p0--0--0h1--1--|      
G|-----------2--0------2-----2--0------0-----0---------------------|            
D|-----2------------3---------------2------------------------------| 
A|--0---------------0---------------3------------------------------| 
E|-----------------------------------------------------------------| 

    Am             Fmaj7            C                                       x2 
e|-----------------------------------------------------------------| 
B|--------1---------------1---------------1-----1--1p0--0--0h1--1--|      
G|--2---------2--0------2-----2--0------0-----0--------------------|            
D|-----2------------3---------------2------------------------------| 
A|--0---------------0---------------3------------------------------| 
E|-----------------------------------------------------------------| 


Verse 

    Am             Fmaj7            C 
e|-----------------------------------------------------------------| 
B|--1-----1---------------1---------------1-----1--1p0--0--0h1--1--|      
G|-----------2--0------2-----2--0------0-----0---------------------|            
D|-----2------------3---------------2------------------------------| 
A|--0---------------0---------------3------------------------------| 
E|-----------------------------------------------------------------| 

   In from the oceans they came 
  
    Am             Fmaj7            C 
e|-----------------------------------------------------------------| 
B|--------1---------------1---------------1-----1--1p0--0--0h1--1--|      
G|--2---------2--0------2-----2--0------0-----0--------------------|            
D|-----2------------3---------------2------------------------------| 
A|--0---------------0---------------3------------------------------| 
E|-----------------------------------------------------------------| 

      Vision of shirt and a name 

e|-----------------------------------------------------------------| 
B|--------1---------------1---------------1-----1--1p0--0--0h1--1--|      
G|--2---------2--0------2-----2--0------0-----0--------------------|            
D|-----2------------3---------------2------------------------------| 
A|--0---------------0---------------3------------------------------| 
E|-----------------------------------------------------------------| 

     But these lands they are wild  

e|-----------------------------------------------------------------| 
B|--------1---------------1---------------1-----1--1p0--0--0h1--1--|      
G|--2---------2--0------2-----2--0------0-----0--------------------|            
D|-----2------------3---------------2------------------------------| 
A|--0---------------0---------------3------------------------------| 
E|-----------------------------------------------------------------| 
     
    And these hand they are tame 

Pre-Chorus 

    G(strum)             G7(strum)              Am(strum)              Am(strum) 
e|-----3-------3-------------1-------1-----------------------0----------------------0----------| 
B|----------------0---------------------0-----------1-----------1----------1-----------1-------| 
G|-------------------0---------------------0--------2--------------2-------2--------------2----| 
D|--------------------------------------------------2----------------------2-------------------| 
A|-----2---------------------2----------------------------0-----------------------0------------| 
E|-----3----3----------------3----3------------------------------------------------------------| 

                                 Don't forget your own 

    G(strum)             G7(strum)              Am(strum)              Am(strum) 
e|-----3-------3-------------1-------1-----------------------0----------------------0----------| 
B|----------------0---------------------0-----------1-----------1----------1-----------1-------| 
G|-------------------0---------------------0--------2--------------2-------2--------------2----| 
D|--------------------------------------------------2----------------------2-------------------| 
A|-----2---------------------2----------------------------0-----------------------0------------| 
E|-----3----3----------------3----3------------------------------------------------------------| 

     Wilderness wish             It gets buried in snow                             Call it 

    G(strum)             G7(strum)              Am(strum)              Am(strum) 
e|-----3-------3-------------1-------1-----------------------0----------------------0----------| 
B|----------------0---------------------0-----------1-----------1----------1-----------1-------| 
G|-------------------0---------------------0--------2--------------2-------2--------------2----| 
D|--------------------------------------------------2----------------------2-------------------| 
A|-----2---------------------2----------------------------0-----------------------0------------| 
E|-----3----3----------------3----3------------------------------------------------------------| 

    Home                                       It's lumber and stone 

    G(strum)             G7(strum)              Am(strum)               G(strum) 
e|-----3-------3-------------1-------1-----------------------0--------------3--------3----------| 
B|----------------0---------------------0-----------1-----------1-----------------------0-------| 
G|-------------------0---------------------0--------2--------------2-----------------------0----| 
D|--------------------------------------------------2-------------------------------------------| 
A|-----2---------------------2----------------------------0-----------------2-------------------| 
E|-----3----3----------------3----3-----------------------------------------3------3------------| 

                                                   Stranded and free   
                              

Chorus 

   Am             Fmaj7            C 
e|-----------------------------------------------------------------| 
B|--------1---------------1---------------1-----1--1p0--0--0h1--1--|      
G|--2---------2--0------2-----2--0------0-----0--------------------|            
D|-----2------------3---------------2------------------------------| 
A|--0---------------0---------------3------------------------------| 
E|-----------------------------------------------------------------| 
    
       This is not like Home 

   Am             Fmaj7            C 
e|-----------------------------------------------------------------| 
B|--------1---------------1---------------1-----1--1p0--0--0h1--1--|      
G|--2---------2--0------2-----2--0------0-----0--------------------|            
D|-----2------------3---------------2------------------------------| 
A|--0---------------0---------------3------------------------------| 
E|-----------------------------------------------------------------| 

       This is not like Home 

   Am             Fmaj7            C 
e|-----------------------------------------------------------------| 
B|--------1---------------1---------------1-----1--1p0--0--0h1--1--|      
G|--2---------2--0------2-----2--0------0-----0--------------------|            
D|-----2------------3---------------2------------------------------| 
A|--0---------------0---------------3------------------------------| 
E|-----------------------------------------------------------------| 

       When you feel alone                                     In a   

   Am             Fmaj7            C 
e|-----------------------------------------------------------------| 
B|--------1---------------1---------------1-----1--1p0--0--0h1--1--|      
G|--2---------2--0------2-----2--0------0-----0--------------------|            
D|-----2------------3---------------2------------------------------| 
A|--0---------------0---------------3------------------------------| 
E|-----------------------------------------------------------------| 

   World that's not your own 

    G(strum)             G7(strum)              Am(strum)              Am(strum) 
e|-----3-------3-------------1-------1-----------------------0----------------------0----------| 
B|----------------0---------------------0-----------1-----------1----------1-----------1-------| 
G|-------------------0---------------------0--------2--------------2-------2--------------2----|   x3 
D|--------------------------------------------------2----------------------2-------------------| 
A|-----2---------------------2----------------------------0-----------------------0------------| 
E|-----3----3----------------3----3------------------------------------------------------------| 

                                                     Not at all           not at all    

 G(strum)             G7(strum)               
e|-----3-------3-------------1-------1-----------| 
B|----------------0---------------------0--------| 
G|-------------------0---------------------0-----|    
D|-----------------------------------------------| 
A|-----2---------------------2-------------------| 
E|-----3----3----------------3----3--------------| 


Verse 

 Am             Fmaj7            C 
e|-----------------------------------------------------------------| 
B|--------1---------------1---------------1-----1--1p0--0--0h1--1--|      
G|--2---------2--0------2-----2--0------0-----0--------------------|            
D|-----2------------3---------------2------------------------------| 
A|--0---------------0---------------3------------------------------| 
E|-----------------------------------------------------------------| 
   
    Awake at the break of the day                               It's 

 Am             Fmaj7            C 
e|-----------------------------------------------------------------| 
B|--------1---------------1---------------1-----1--1p0--0--0h1--1--|      
G|--2---------2--0------2-----2--0------0-----0--------------------|            
D|-----2------------3---------------2------------------------------| 
A|--0---------------0---------------3------------------------------| 
E|-----------------------------------------------------------------| 
    
    Working, it brings in the pay                         There's a 

 Am             Fmaj7            C 
e|-----------------------------------------------------------------| 
B|--------1---------------1---------------1-----1--1p0--0--0h1--1--|      
G|--2---------2--0------2-----2--0------0-----0--------------------|            
D|-----2------------3---------------2------------------------------| 
A|--0---------------0---------------3------------------------------| 
E|-----------------------------------------------------------------| 

   Lonely dirt road leading      back through the trees    There's a 

 Am             Fmaj7            C 
e|-----------------------------------------------------------------| 
B|--------1---------------1---------------1-----1--1p0--0--0h1--1--|      
G|--2---------2--0------2-----2--0------0-----0--------------------|            
D|-----2------------3---------------2------------------------------| 
A|--0---------------0---------------3------------------------------| 
E|-----------------------------------------------------------------| 

   Wagon that takes them away 

Pre-Chorus 

    G(strum)             G7(strum)              Am(strum)              Am(strum) 
e|-----3-------3-------------1-------1-----------------------0----------------------0----------| 
B|----------------0---------------------0-----------1-----------1----------1-----------1-------| 
G|-------------------0---------------------0--------2--------------2-------2--------------2----| 
D|--------------------------------------------------2----------------------2-------------------| 
A|-----2---------------------2----------------------------0-----------------------0------------| 
E|-----3----3----------------3----3------------------------------------------------------------| 

                                 Don't forget your own 

    G(strum)             G7(strum)              Am(strum)              Am(strum) 
e|-----3-------3-------------1-------1-----------------------0----------------------0----------| 
B|----------------0---------------------0-----------1-----------1----------1-----------1-------| 
G|-------------------0---------------------0--------2--------------2-------2--------------2----| 
D|--------------------------------------------------2----------------------2-------------------| 
A|-----2---------------------2----------------------------0-----------------------0------------| 
E|-----3----3----------------3----3------------------------------------------------------------| 

     Wilderness wish             It gets buried in snow                             Call it 

    G(strum)             G7(strum)              Am(strum)              Am(strum) 
e|-----3-------3-------------1-------1-----------------------0----------------------0----------| 
B|----------------0---------------------0-----------1-----------1----------1-----------1-------| 
G|-------------------0---------------------0--------2--------------2-------2--------------2----| 
D|--------------------------------------------------2----------------------2-------------------| 
A|-----2---------------------2----------------------------0-----------------------0------------| 
E|-----3----3----------------3----3------------------------------------------------------------| 

    Home                                       It's lumber and stone 

    G(strum)             G7(strum)              Am(strum)               G(strum) 
e|-----3-------3-------------1-------1-----------------------0--------------3--------3----------| 
B|----------------0---------------------0-----------1-----------1-----------------------0-------| 
G|-------------------0---------------------0--------2--------------2-----------------------0----| 
D|--------------------------------------------------2-------------------------------------------| 
A|-----2---------------------2----------------------------0-----------------2-------------------| 
E|-----3----3----------------3----3-----------------------------------------3------3------------| 

                                                   Stranded and free   
                              

Chorus & Outro 

   Am             Fmaj7            C 
e|-----------------------------------------------------------------| 
B|--------1---------------1---------------1-----1--1p0--0--0h1--1--|      
G|--2---------2--0------2-----2--0------0-----0--------------------|            
D|-----2------------3---------------2------------------------------| 
A|--0---------------0---------------3------------------------------| 
E|-----------------------------------------------------------------| 
    
       This is not like Home 

   Am             Fmaj7            C 
e|-----------------------------------------------------------------| 
B|--------1---------------1---------------1-----1--1p0--0--0h1--1--|      
G|--2---------2--0------2-----2--0------0-----0--------------------|            
D|-----2------------3---------------2------------------------------| 
A|--0---------------0---------------3------------------------------| 
E|-----------------------------------------------------------------| 

       This is not like Home 

   Am             Fmaj7            C 
e|-----------------------------------------------------------------| 
B|--------1---------------1---------------1-----1--1p0--0--0h1--1--|      
G|--2---------2--0------2-----2--0------0-----0--------------------|            
D|-----2------------3---------------2------------------------------| 
A|--0---------------0---------------3------------------------------| 
E|-----------------------------------------------------------------| 
    
       This is not like Home 

   Am             Fmaj7            C 
e|-----------------------------------------------------------------| 
B|--------1---------------1---------------1-----1--1p0--0--0h1--1--|      
G|--2---------2--0------2-----2--0------0-----0--------------------|            
D|-----2------------3---------------2------------------------------| 
A|--0---------------0---------------3------------------------------| 
E|-----------------------------------------------------------------| 

       This is not like Home 

    Am             Fmaj7            C 
e|-----------------------------------------------------------------| 
B|--1-----1---------------1---------------1-----1--1p0--0--0h1--1--|      
G|-----------2--0------2-----2--0------0-----0---------------------|            
D|-----2------------3---------------2------------------------------| 
A|--0---------------0---------------3------------------------------| 
E|-----------------------------------------------------------------| 

    Am             Fmaj7            C                                       x2 
e|--------------------------------------------------------------------| 
B|--------1---------------1---------------1-----1--1p0--0--0h1--1-----|      
G|--2---------2--0------2-----2--0------0-----0--------------------2--|            
D|-----2------------3---------------2---------------------------------| 
A|--0---------------0---------------3------------------------------0--| 
E|--------------------------------------------------------------------| 

End of tab 

************************************ 

| h       Hammer-on 
| p       Pull-off 
| strum   strum once  

************************************ 
  

cifra enviadasem correções
enviado porenviada por:aleffederico
top 5 | great lake swimmers
top rock alternativo
Outras músicas do artista letras do(a) Great Lake Swimmers
Top cifras »Top artistas »
Petaxxon Comunicação Online
Cifras.com.br - Melhor e mais completo site de cifras e tablaturas do Brasil
Mais de 1 milhão de acordes de músicas cadastradas desde 2003
As informações contidas no nosso site são colaborações de seus usuários e podem conter erros, sendo assim, não nos responsabilizamos sobre nenhuma destas.
close
menos
mais
close
Cor dos acordes:

Cor da letra:

 

save
close
close
 
redimensionar