Cifras e Tablaturas
Green Day

Green Day

Boulevard of broken dreams (lead)

Cifras Cancelar Versão de Impressão

Green Day - Boulevard of broken dreams (lead)

Tom: E

  			This is the part of the song after the Chorus. 
 
i walk alone, i walk a ... 
E  -1-1--/3--/4-4-4--/8--/6---\3-/4--4-4-- 
A  -2-2--/4--/6-6-6--/9--/8---\4-/6--6-6-- 
D  -1-1--/3--/5-5-5--/8--/7---\3-/5--5-5-- x3 
G  --------------------------------------- 
B  --------------------------------------- 
E  --------------------------------------- 
 
E  -1-1--/3--/4-4-4--/8--/6---8-8-8-8-8-8-8-8-8-8-8-8-8 
A  -2-2--/4--/6-6-6--/9--/8---8-8-8-8-8-8-8-8-8-8-8-8-8 
D  -1-1--/3--/5-5-5--/8--/7---9-9-9-9-9-9-9-9-9-9-9-9-9 
G  ---------------------------------------------------- 
B  ---------------------------------------------------- 
E  ---------------------------------------------------- 
 
 
 
KARL (greenday addict) 

    	
fixar
fixar inscrever-se

enviado porenviado por: karl_greenday
cifra enviadaCorrigida por: sem correções
logo top cifrasComente
ico música do artistaMúsicas deste artista
ico curtiuCurtiu?
ico destaqueDestaque
Petaxxon Comunicação Online

Cifras.com.br - Melhor e mais completo site de cifras e tablaturas do Brasil Mais de 1 milhão de acordes de músicas cadastradas desde 2003
As informações contidas no nosso site são colaborações de seus usuários e podem conter erros, sendo assim, não nos responsabilizamos sobre nenhuma destas.

close
menos
mais
close
Cor dos acordes:

Cor da letra:

close
Alinhar acordes a direita Alinhar acordes a esquerda Alinhar acordes em baixo Alinhar acordes no topo
close
  Mostrar todos os acordes Esconder acordes muito fáceis Esconder acordes fáceis Esconder acordes intermediários
redimensionar
glossário