Cifras e Tablaturas
Green Day

Green Day

Holiday(beggining and solo)

Cifras Cancelar Versão de Impressão

Green Day - Holiday(beggining and solo)

Tom:

  			Beggining:(barely touch the g and d strings (x) to 
mute them. 
 
E---------------------- 
B-9-9/6-6/13-13/8-8-8-8 
G-x-x x-x x -x  x-x-x-x  X4 
D-x-x x-x x -x  x-x-x-x 
A-8-8/4-4/11-11/6-6-6-6 
E---------------------- 
 
Solo:play the top three strings 
 
E-------------------------------8-8- 
B-6--6-6-8-9-----------8-5-5---6-6-6 
G-----------8-6-5-5-5-5-----5-5----- 
 
E------------------------------------- 
B-6--6-6-8-9------------8-8-8-8-8-8/13 
G-----------8/6-5-5-5-5--------------- 
 
E------------------------------ 
B-13-13-13-13-13-13/17-17-17-18 
G------------------------------ 
 
if anything is wrong please e-mail 
me @ [email protected] for 
questions or help. 

    	
fixar
fixar inscrever-se

enviado porenviado por: jannmann
cifra enviadaCorrigida por: sem correções
logo top cifrasComente
ico música do artistaMúsicas deste artista
ico curtiuCurtiu?
ico destaqueDestaque
Petaxxon Comunicação Online

Cifras.com.br - Melhor e mais completo site de cifras e tablaturas do Brasil Mais de 1 milhão de acordes de músicas cadastradas desde 2003
As informações contidas no nosso site são colaborações de seus usuários e podem conter erros, sendo assim, não nos responsabilizamos sobre nenhuma destas.

close
menos
mais
close
Cor dos acordes:

Cor da letra:

close
Alinhar acordes a direita Alinhar acordes a esquerda Alinhar acordes em baixo Alinhar acordes no topo
close
  Mostrar todos os acordes Esconder acordes muito fáceis Esconder acordes fáceis Esconder acordes intermediários
redimensionar
glossário