Cifras e Tablaturas
Green Day

Green Day

holyday

Cifras Cancelar Versão de Impressão

Green Day - holyday

Tom: Fm

  			Intro            
e|-------------------| \ 
B|-------------------| | 
G|-10-10-6-6-13-13---| | x6 
D|-10-10-6-6-13-13---| | 
A|-8--8--4-4-11-11---| | 
E|-------------------| / 
 
Fm       C#           G#      D# 
Hear the sound of the pouring rain  
Fm     C#           G#   D#    Fm  
Coming down like an Armageddon flame (Hey!)  
    C#         G#       D#       C  
The shame, the ones who died without a name  
  
Fm       C#           G#     D# 
Hear the dogs howling out of key  
Fm   C#           G#        D#   Fm  
To a hymn called "Faith and Misery" (Hey!)  
    C#         G#      D#       C   
And bleed, the company lost the war today  
  
Coro  
Fm       C#               G#              D# 
I beg to dream and differ from the hollow lies  
Fm          C#             G#          C  
This is the dawning of the rest of our lives  
  
On holiday  
  
Fm, C#, G#, D# x2  
  
Fm       C#            G#     D#  
Hear the drum pounding out of time  
Fm      C#     G#      D#          Fm  
Another protestor has crossed the line (Hey!)  
   C#        G#      D#     C  
To find, the money's on the other side  
  
Fm    C#  G#        D# 
Can I get another Amen? (Amen!)  
Fm        C#              G#    D#       Fm  
There's a flag wrapped around a score of men (Hey!)  
C#       G#      D#       C  
A gag, a plastic bag on a monument  
  
Coro  
Fm       C#               G#              D# 
I beg to dream and differ from the hollow lies  
Fm          C#             G#          C  
This is the dawning of the rest of our lives  
  
On holiday  
e|------------------------------------------| \ 
B|------------------------------------------| | 
G|-----------6---8---------------6----10----| | 
D|-3-3-5-6-3-6-8-8--10-3-3-5-6-3-6-10-10-3--| | x2 
A|-3-3-5-6-3-4-8-6--10-3-3-5-6-3-4-10-8--3--| | 
E|-1-1-3-4-1---6----8--1-1-3-4-1---8-----1--| / 
Esto lo toca una guitarra: 
e|------------------------------------8------8----|  
B|-----------8-9----------8----------------8---8--|  
G|-10-10-10------8-6-5--5---9-5--5/10---10--------|  
D|------------------------------------------------|  
A|------------------------------------------------| 
 
e|--------------------------------------------------------------------|  
B|-----------8-9-------------------------13-13-13-17-17-17-17-17/18---|  
G|-10-10-10------8-6-5-55/12-12-12-12-12------------------------------|  
D|--------------------------------------------------------------------|  
A|--------------------------------------------------------------------|  
E|--------------------------------------------------------------------| 
 
Esto lo toca otra guitarra al mismo tiempo: 
   C#        G#           C        Fm      D#       
e|------------------------------------------------|  
B|------------------------------------------------|  
G|-6----------------------5--------10------8------|  
D|-6---------6------------5--------10------8------|  
A|-4---------6------------3--------8-------6------|  
E|-----------4------------------------------------| 
 
   C#        G#           C  
e|------------------------------------------------|  
B|------------------------------------------------|  
G|-6----------------------5-----------------------|  
D|-6---------6------------5-----------------------|  
A|-4---------6------------3-----------------------|  
E|-----------4------------------------------------| 
 
Todo lo que es hablado se acompaña con esto:                                                               
G|----------------------------------------------------------| \ 
D|----------------------------------------------------------| | x6 
A|----------------4-----6----------------------6-----8------| | 
E|--1-1-1--4-4-4-----6-----8\1---1-1-1--4-4-4-----8-----\1--| / 
  
 
"The representative from California has the floor"  
Zeig Heil to the president gasman  
Bombs away is your punishment  
Pulverize the Effel towers  
Who criticize your government?  
Bang bang goes the broken glass and  
Kill all the fags who don't agree  
Trials by fire, setting fire  
 
                       D#  C   Fm 
e|------------------------------------|  
B|------------------------------------|  
G|---------------------8-------10-----|  
D|---------------------8---10--10-----| 
A|---------------------6---10--8------|  
E|-------------------------8----------|  
is not a way that?s  meant for me 
C 
Just cause, Just cause, because we're outlaws yeah!  
  
 
 
 
Coro x2 
Fm       C#               G#              D# 
I beg to dream and differ from the hollow lies  
Fm          C#             G#          C  
This is the dawning of the rest of our lives  
 
despues de la sagunda repetición sigue esto: 
C 
This is our lives on holiday... 
 
e|-------------------------------------------------------------------|  
B|-------------------------------------------------------------------| 
G|-10-10-6-6-13-13-10-10-6-6-13-13-10-10-6-6-13-13-10-10-6-6-8-5-10-3| 
D|-10-10-6-6-13-13-10-10-6-6-13-13-10-10-6-6-13-13-10-10-6-6-8-5-10-3| 
A|-8--8--4-4-11-11-8--8--4-4-11-11-8--8--4-4-11-11-8--8--4-4-6-3-8--1| 
E|-------------------------------------------------------------------| 
 
 
 
 
    	
fixar
fixar inscrever-se

enviado porenviado por: maranita_1988
cifra enviadaCorrigida por: sem correções
logo top cifrasComente
ico música do artistaMúsicas deste artista
ico curtiuCurtiu?
ico destaqueDestaque
Petaxxon Comunicação Online

Cifras.com.br - Melhor e mais completo site de cifras e tablaturas do Brasil Mais de 1 milhão de acordes de músicas cadastradas desde 2003
As informações contidas no nosso site são colaborações de seus usuários e podem conter erros, sendo assim, não nos responsabilizamos sobre nenhuma destas.

close
menos
mais
close
Cor dos acordes:

Cor da letra:

close
Alinhar acordes a direita Alinhar acordes a esquerda Alinhar acordes em baixo Alinhar acordes no topo
close
  Mostrar todos os acordes Esconder acordes muito fáceis Esconder acordes fáceis Esconder acordes intermediários
redimensionar
glossário