Cifras e Tablaturas
Grizzly Bear

Grizzly Bear

Four Cypresses

Cifras Cancelar Versão de Impressão
cifras

Grizzly Bear - Four Cypresses

fixar na tela  
Exibindo: vídeo-aula ver clipes redimensionar
  
Intro  
No guitar, just percussion. Chords come in at 40 seconds  

Verse 
      "Instead of moving.." 
        F               Am7              C#maj7            G# 
e|------1-------|--------5---------|-------4-------|-------4------------| 
B|------1-------|--------5---------|-------6-------|-------4------------| 
G|------2-------|--------5---------|-------5-------|-------5------------| 
D|------3-------|--------5---------|-------6-------|-------6------------| 
A|------3-------|--------7---------|-------4-------|-------6------------| 
E|------1-------|--------5---------|---------------|-------4------------| 
       "Tangled up in a pile..." 
    F               Am7                 C#maj7          G# 
e|--1-------|--------5-------5---5---|----4-----|-------4--------------------| 
B|--1-------|--------5-------5---5---|----6-----|-------4---------4----------| 
G|--2-------|--------5-------7---7---|----5-----|-------5-----------5--------| 
D|--3-------|--------5-------5---5---|----6-----|-------6------6------6------| 
A|--3-------|--------7-------7---7---|----4-----|-------6----6----------6----| 
E|--1-------|--------5-------5---5---|----------|-------4--------------------| 
       "Living in a pile.." 
    F               Am7                 C#maj7          G# 
e|--1-------|--------5-------5---5---|----4-----|-------4-----------------4------| 
B|--1-------|--------5-------5---5---|----6-----|-------4-----------------4------| 
G|--2-------|--------5-------7---7---|----5-----|-------5-----------------5------| 
D|--3-------|--------5-------5---5---|----6-----|-------6-----------------6------| 
A|--3-------|--------7-------7---7---|----4-----|-------6-----------------6------| 
E|--1-------|--------5-------5---5---|----------|-------4-----------------4------| 
       "Planes flying overhead..." 
e|--1---|---5--------------------|-------------------------------------|-----------------------------------| 
B|--1---|---5--------------------|--------6--------6--------6--------6-|-----------------------------------| 
G|--2---|---5---------5--------5-|-------------------------------------|-------5--------5--------5--------5| 
D|--3---|---5--------------------|-----6--------6--------6--------6----|-------------6--------6--------6---| 
A|--3---|---7------7--------7----|--4--------4--------4--------4-------|----6-----6--------6--------6------| 
E|--1---|---5---5--------5-------|-------------------------------------|-4---------------------------------| 
       "Four Cypresses.." 
e|---------------------------|-------------------------|-------------------------|--------------------------| 
B|---------------------------|-------------------------|-----6-----6-----6-----6-|--------------------------| 
G|------2-----2-----2-----2--|-----5-----5-----5-----7-|-------------------------|-----5-----5-----5-----5--| 
D|----------3-----3-----3----|-------------------------|---6-----6-----6-----6---|---------6-----6-----6----| 
A|----3---3-----3-----3------|---7-----7-----7-----7---|-4-----4-----4-----4-----|---6---6-----6-----6------| 
E|--1------------------------|-5-----5-----5-----5-----|-------------------------|-4------------------------| 
       "No memory..." 
e|---------------------------|-------------------------|-------------------------|--------------------------| 
B|---------------------------|-------------------------|-----6-----6-----6-----6-|--------------------------| 
G|------2-----2-----2-----2--|-----5-----5-----5-----7-|-------------------------|-----5-----5-----5-----5--| 
D|----------3-----3-----3----|-------------------------|---6-----6-----6-----6---|---------6-----6-----6----| 
A|----3---3-----3-----3------|---7-----7-----7-----7---|-4-----4-----4-----4-----|---6---6-----6-----6------| 
E|--1------------------------|-5-----5-----5-----5-----|-------------------------|-4------------------------| 

       "Planes flying overhead.." 
e|---------------------------|-------------------------|-------------------------|--------------------------| 
B|---------------------------|-------------------------|-----6-----6-----6-----6-|--------------------------| 
G|------2-----2-----2-----2--|-----5-----5-----5-----7-|-------------------------|-----5-----5-----5-----5--| 
D|----------3-----3-----3----|-------------------------|---6-----6-----6-----6---|---------6-----6-----6----| 
A|----3---3-----3-----3------|---7-----7-----7-----7---|-4-----4-----4-----4-----|---6---6-----6-----6------| 
E|--1------------------------|-5-----5-----5-----5-----|-------------------------|-4------------------------| 

Chorus 
    F        Am7          A#m/C#      G#maj7/D# 
e|------------5-------|-----9-----13-----11----------------| 
B|------------5-------|-----11-----------13----------------| 
G|--10--------5-------|-----10-----------12----------------| 
D|--10--------5-------|-----11-----------13----------------| (x4) 
A|--12--------7-------|------------------11----------------| 
E|--13--------5-------|------------------11----------------| 

Bridge  
     F                             C            Am(add11)     
e|---1~-----------------------|--------------|---------------| 
B|---1~-----------------------|--------------|---------------| 
G|---2~-----------------------|----0---------|----5----------| 
D|---3~-----------------------|----2---------|----7----------| 
A|---3~-----------------------|----3---------|----5----------| 
E|---1~-----------------------|----3---------|----5----------| 

    "Four cypresses..."  
         F#                    F                     C                     D 
e|-------2-------2-----|-------1-------1-----|-------3-------8-----|-------5-----10-----| 
B|-------2-------2-----|-------1-------1-----|-------5-------5-----|-------7-----7------| 
G|-------3-------3-----|-------2-------2-----|-------5-------5-----|-------7-----7------| 
D|-------4-------4-----|-------3-------3-----|-------5---5---5-----|-------7-----7------| 
A|-------4-------4-----|-------3-------3-----|-------3-------------|-------5------------| 
E|---2---2---2---2-----|---1---1---1---1-----|---3---3-------------|---5---5------------| 

     "Great thundering.." 
         F#                    F                     C                     D 
e|-------2-------2-----|-------1-------1-----|-------3-------8-----|-------5-----10-----| 
B|-------2-------2-----|-------1-------1-----|-------5-------5-----|-------7-----7------| 
G|-------3-------3-----|-------2-------2-----|-------5-------5-----|-------7-----7------| 
D|-------4-------4-----|-------3-------3-----|-------5---5---5-----|-------7-----7------| 
A|-------4-------4-----|-------3-------3-----|-------3-------------|-------5------------| 
E|---2---2---2---2-----|---1---1---1---1-----|---3---3-------------|---5---5------------| 

     "Some thousands.." 
         F#                    F                     C               Db                 D 
e|-------9-------9-----|-------8-------8-----|-------3-------8-----|----------9------------------10--------| 
B|-------11------11----|-------10------10----|-------5-------5-----|-------6-----6------------7------7-----| 
G|-------11------11----|-------10------10----|-------5-------5-----|----6-----------6------7------------7--| 
D|-------11------11----|-------10------10----|-------5---5---5-----|-6------------------7------------------| 
A|-------9-------9-----|-------8-------8-----|-------3-------------|---------------------------------------| 
E|---9---9---9---9-----|---8---8---8---8-----|---3---3-------------|---------------------------------------| 

     "Some crumbling..." 
        F#maj7                  F/C                      C                 D 
e|-------13------13----|--------13--------13-----|-------3-------8-----|---5--------10--10---| 
B|-------11------11----|--------10--------10-----|-------5-------5-----|---7--------7---7----| 
G|-------11------11----|--------10--------10-----|-------5-------5-----|---7--------7---7----| 
D|-------11------11----|---10---10---10---10-----|-------5---5---5-----|---7--------7---7----| 
A|---9---9---9---9-----|-------------------------|-------3-------------|---5-----------------| 
E|---------------------|-------------------------|---3---3-------------|---5-----------------| 
       Db 
e|-----4~----------------------------| 
B|-----6~----------------------------| 
G|-----6~----------------------------| 
D|-----6~----------------------------| 
A|-----4~----------------------------| 
E|-----------------------------------| 

        F               Am7              C#maj7            G# 
e|------1-------|--------5---------|-------4-------|-------4------------| 
B|------1-------|--------5---------|-------6-------|-------4------------| 
G|------2-------|--------5---------|-------5-------|-------5------------| 
D|------3-------|--------5---------|-------6-------|-------6------------| 
A|------3-------|--------7---------|-------4-------|-------6------------| 
E|------1-------|--------5---------|---------------|-------4------------| 

Verse 

    "Living in a pile,,," 
        F               Am7              C#maj7            G# 
e|------1-------|--------5---------|-------4-------|-------4------------| 
B|------1-------|--------5---------|-------6-------|-------4------------| 
G|------2-------|--------5---------|-------5-------|-------5------------| 
D|------3-------|--------5---------|-------6-------|-------6------------| 
A|------3-------|--------7---------|-------4-------|-------6------------| 
E|------1-------|--------5---------|---------------|-------4------------| 

    "Tangled in a pile..." 
e|------1-------|--------5---------|-------4-------|-------4------------| 
B|------1-------|--------5---------|-------6-------|-------4------------| 
G|------2-------|--------5---------|-------5-------|-------5------------| 
D|------3-------|--------5---------|-------6-------|-------6------------| 
A|------3-------|--------7---------|-------4-------|-------6------------| 
E|------1-------|--------5---------|---------------|-------4------------| 


Outro 
        F             A#m/C#      G#maj7/D# 
e|-----------------|----9-----13-----11---------| 
B|-----------------|----11-----------13---------| 
G|------10~--------|----10-----------12---------| 
D|------10~--------|----11-----------13---------| (x4) 
A|------12~--------|-----------------11---------| 
E|------13~--------|-----------------11---------| 



************************************ 

| ~   vibrato 
| ()  ghost note 

************************************ 
  

cifra enviadasem correções
enviado porenviada por:VsWorld
top 5 | grizzly bear
top rock alternativo
Outras músicas do artista letras do(a) Grizzly Bear
Top cifras »Top artistas »
Petaxxon Comunicação Online
Cifras.com.br - Melhor e mais completo site de cifras e tablaturas do Brasil
Mais de 1 milhão de acordes de músicas cadastradas desde 2003
As informações contidas no nosso site são colaborações de seus usuários e podem conter erros, sendo assim, não nos responsabilizamos sobre nenhuma destas.
close
menos
mais
close
Cor dos acordes:

Cor da letra:

 

save
close
close
 
redimensionar