Cifras e Tablaturas
Grizzly Bear

Grizzly Bear

Hold Still

Cifras Cancelar Versão de Impressão
cifras

Grizzly Bear - Hold Still

fixar na tela  
Exibindo: vídeo-aula ver clipes redimensionar
  

Intro 
d |-------5-----5-----5-----5-----|-----5-----5-----5-----5-----| 
B |-------7-----7-----5-----5-----|-----7-----7-----5-----5-----| 
F#|-------5-----5-----7-----7-----|-----5-----5-----7-----7-----| 
D |-------x-----x-----x-----x-----|-----x-----x-----x-----x-----| 
A |-------0-----0-----0-----0-----|-----0-----0-----0-----0-----| 
D |-------0-----0-----0-----0-----|-----0-----0-----0-----0-----| 
                                                                                        "Here we...            
d |-------5-----5-----5-----5-----|-----5-----5-----5----------------|---------8----8----8----| 
B |-------7-----7-----5-----5-----|-----7-----7-----5----------------|---------8----8----8----| 
F#|-------5-----5-----7-----7-----|-----5-----5-----7----------------|---------8----8----8----| 
D |-------x-----x-----x-----x-----|-----x-----x-----x----------------|---------10---8----8----| 
A |-------0-----0-----0-----0-----|-----0-----0-----0----------------|----10---10---10---10---| 
D |-------0-----0-----0-----0-----|-----0-----0-----0-----3-----5----|----8----8----8----8----| 

verse 1 
   ..go, again.." 
d |----3----3----3----3-----|---------8----8----8----| 
B |----3----3----3----3-----|---------8----8----8----| 
F#|----3----3----3----3-----|---------8----8----8----| 
D |----3----3----3----5p3---|---------10---8----8----| 
A |----3----3----3----3-----|----10---10---10---10---| 
D |----3----3----3----3-----|----8----8----8----8----| 

   "We'll carry on..." 
d |----3----3----3----3-----| 
B |----3----3----3----3-----| 
F#|----3----3----3----3-----| 
D |----3----3----3----5p3---| 
A |----3----3----3----3-----| 
D |----3----3----3----3-----| 

Chorus 1 
                                               "I'll take one chance..." 
d |---------------------------------|---5----5----5----5----| 
B |---------0------------0----------|---5----5----5----5----| 
F#|----0h2-----3----0h2-----2----3--|---5----5----5----5----| 
D |------------x------------x-------|---5----5----5----5----|  
A |------------3------------2-------|---5----5----5----5----| 
D |------------3------------2-------|---5----5----5----5----| 
                                               "Without compromise.." 
d |---------------------------------|---5----5----5----5----| 
B |---------0------------0----------|---5----5----5----5----| 
F#|----0h2-----3----0h2-----2----3--|---5----5----5----5----| 
D |------------x------------x-------|---5----5----5----5----|  
A |------------3------------2-------|---5----5----5----5----| 
D |------------3------------2-------|---5----5----5----5----| 
                                                "There isn't anything..." 
d |---------------------------------|---5----5----5----5----| 
B |---------0------------0----------|---5----5----5----5----| 
F#|----0h2-----3----0h2-----2-------|---5----5----5----5----| 
D |------------x------------x-------|---5----5----5----5----|  
A |------------3------------2-------|---5----5----5----5----| 
D |------------3------------2-------|---5----5----5----5----| 
   "...left" 
d |----3----3----3----3---|---3----3----5----3---| 
B |----3----3----3----3---|---5----3----3----3---| 
F#|----3----3----3----3---|---3----3----3----3---| 
D |----3----3----3----3---|---3----3----3----3---| 
A |----3----3----3----3---|---3----3----3----3---| 
D |----3----3----3----3---|---3----3----3----3---| 
   "To try.." 
d |----7----7----7----7---|---7----7----7----7---| 
B |----7----7----7----7---|---7----7----7----7---| 
F#|----7----7----7----7---|---7----7----7----7---| 
D |----9----9----7----7---|---9----9----9----9---| 
A |----7----7----7----7---|---7----7----7----7---| 
D |----7----7----7----7---|---7----7----7----7---| 

Instrumental 
d |-------5-----5-----5-----5-----|-----5-----5-----5-----5-----| 
B |-------7-----7-----5-----5-----|-----7-----7-----5-----5-----| 
F#|-------5-----5-----7-----7-----|-----5-----5-----7-----7-----| 
D |-------x-----x-----x-----x-----|-----x-----x-----x-----x-----| 
A |-------0-----0-----0-----0-----|-----0-----0-----0-----0-----| 
D |-------0-----0-----0-----0-----|-----0-----0-----0-----0-----| 
                                                                                        "Here we...           
d |-------5-----5-----5-----5-----|-----5-----5-----5----------------|---------8----8----8----| 
B |-------7-----7-----5-----5-----|-----7-----7-----5----------------|---------8----8----8----| 
F#|-------5-----5-----7-----7-----|-----5-----5-----7----------------|---------8----8----8----| 
D |-------x-----x-----x-----x-----|-----x-----x-----x----------------|---------10---8----8----| 
A |-------0-----0-----0-----0-----|-----0-----0-----0----------------|----10---10---10---10---| 
D |-------0-----0-----0-----0-----|-----0-----0-----0-----3-----5----|----8----8----8----8----| 

verse 2 
   ..go, again.." 
d |----3----3----3----3-----|---------8----8----8----| 
B |----3----3----3----3-----|---------8----8----8----| 
F#|----3----3----3----3-----|---------8----8----8----| 
D |----3----3----3----5p3---|---------10---8----8----| 
A |----3----3----3----3-----|----10---10---10---10---| 
D |----3----3----3----3-----|----8----8----8----8----| 

   "We'll carry on..." 
d |----3----3----3----3-----| 
B |----3----3----3----3-----| 
F#|----3----3----3----3-----| 
D |----3----3----3----5p3---| 
A |----3----3----3----3-----| 
D |----3----3----3----3-----| 

Chorus 2 
                                               "We couldn't take this..." 
d |---------------------------------|---5----5----5----5----| 
B |---------0------------0----------|---5----5----5----5----| 
F#|----0h2-----3----0h2-----2----3--|---5----5----5----5----| 
D |------------x------------x-------|---5----5----5----5----|  
A |------------3------------2-------|---5----5----5----5----| 
D |------------3------------2-------|---5----5----5----5----| 
                                               "The story goes unformed.." 
d |---------------------------------|---5----5----5----5----| 
B |---------0------------0----------|---5----5----5----5----| 
F#|----0h2-----3----0h2-----2----3--|---5----5----5----5----| 
D |------------x------------x-------|---5----5----5----5----|  
A |------------3------------2-------|---5----5----5----5----| 
D |------------3------------2-------|---5----5----5----5----| 
                                                "As if it were never..." 
d |---------------------------------|---5----5----5----5----| 
B |---------0------------0----------|---5----5----5----5----| 
F#|----0h2-----3----0h2-----2-------|---5----5----5----5----| 
D |------------x------------x-------|---5----5----5----5----|  
A |------------3------------2-------|---5----5----5----5----| 
D |------------3------------2-------|---5----5----5----5----| 
   "...there" 
d |----3----3----3----3---|---3----3----5----3---| 
B |----3----3----3----3---|---5----3----3----3---| 
F#|----3----3----3----3---|---3----3----3----3---| 
D |----3----3----3----3---|---3----3----3----3---| 
A |----3----3----3----3---|---3----3----3----3---| 
D |----3----3----3----3---|---3----3----3----3---| 
   "At all.." 
d |----7----7----7----7---|---7----7----7----7---| 
B |----7----7----7----7---|---7----7----7----7---| 
F#|----7----7----7----7---|---7----7----7----7---| 
D |----9----9----7----7---|---9----9----9----9---| 
A |----7----7----7----7---|---7----7----7----7---| 
D |----7----7----7----7---|---7----7----7----7---| 

Outro 
d |----------------------------------------------| 
B |---------0------------0-----------------------| 
F#|----0h2-----3----0h2-----2----3/5-------------| 
D |------------x------------x--------------------| 
A |------------3------------2--------------------| 
D |------------3------------2--------------------| 


************************************ 

| x   Dead note 
| h   Hammer-on 
| /   Slide up 

************************************ 
  

top 5 | grizzly bear
top rock alternativo
Outras músicas do artista letras do(a) Grizzly Bear
Top cifras »Top artistas »
Petaxxon Comunicação Online
Cifras.com.br - Melhor e mais completo site de cifras e tablaturas do Brasil
Mais de 1 milhão de acordes de músicas cadastradas desde 2003
As informações contidas no nosso site são colaborações de seus usuários e podem conter erros, sendo assim, não nos responsabilizamos sobre nenhuma destas.
close
menos
mais
close
Cor dos acordes:

Cor da letra:

 

save
close
close
 
redimensionar