Cifras e Tablaturas
Grupo Revelação

Grupo Revelação

A Pureza da Flor

Ano: 2006
Album : Velocidade da Luz

Cifras Cancelar Versão de Impressão Print

Grupo Revelação - A Pureza da Flor

Tom: F

  			D|-2s3-2--------2s3-1-----------------------------| 
             B|-------1---1--------1---------3----0-3-----1----| 
             G|---------2------------2-0--------------2-3------| 
             D|---------------------------3--------------------| 
                                    F÷÷÷÷ 
             D|-------------------| 
             B|-------1------------| 
             G|-0-2-3-------------| 
             D|-------------------| 

    	

enviado porenviado por: Rafa_Ki.pagode
cifra enviadaCorrigida por: sem correções
logo top cifrasComente
ico música do artistaMúsicas deste artista
ico curtiuCurtiu?
ico destaqueDestaque
Petaxxon Comunicação Online

Cifras.com.br - Melhor e mais completo site de cifras e tablaturas do Brasil Mais de 1 milhão de acordes de músicas cadastradas desde 2003
As informações contidas no nosso site são colaborações de seus usuários e podem conter erros, sendo assim, não nos responsabilizamos sobre nenhuma destas.

close
menos
mais
close
Cor dos acordes:

Cor da letra:

close
Alinhar acordes a direita Alinhar acordes a esquerda Alinhar acordes em baixo Alinhar acordes no topo
close
  Mostrar todos os acordes Esconder acordes muito fáceis Esconder acordes fáceis Esconder acordes intermediários
redimensionar
glossário