Cifras e Tablaturas
Guto Motta

Guto Motta

Una Vez Más

Cifras Cancelar Versão de Impressão Print

Guto Motta - Una Vez Más

Tom: B

  • 0:00 / 0:00
  			Intro 

E|--------------x-----------------------------------x-----------------------| 
B|-----4-----2--x-----0--------2-----------4-----2--x-----0--------2--------| 
G|--------------x-----------------1-----------------x-----------------1-----| 
D|-----4-----2--x-----1-----2--------2-----4-----2--x-----1-----2--------2--| 
A|--2-----2-----x--2-----2--------------2-----2-----x--2-----2--------------| ​ 
E|--------------x-----------------------------------x-----------------------| 

Hoy mirando al cielo, yo te vi 
E|--------------x-----------------------------------x-----------------------| 
B|-----4-----2--x-----0--------2-----------4-----2--x-----0--------2--------| 
G|--------------x-----------------1-----------------x-----------------1-----| 
D|-----4-----2--x-----1-----2--------2-----4-----2--x-----1-----2--------2--| 
A|--2-----2-----x--2-----2--------------2-----2-----x--2-----2--------------| 
E|--------------x-----------------------------------x-----------------------| 

​Caminando al lado mío te sentí 
E|--------------x-----------------------------------x-----------------------| 
B|-----4-----2--x-----0--------2-----------4-----2--x-----0--------2--------| 
G|--------------x-----------------1-----------------x-----------------1-----| 
D|-----4-----2--x-----1-----2--------2-----4-----2--x-----1-----2--------2--| 
A|--2-----2-----x--2-----2--------------2-----2-----x--2-----2--------------| ​ 
E|--------------x-----------------------------------x-----------------------| 

O entonces cantándome tu calma por ahí 
E|--------------------------------------------------------------------------| 
B|-----------0-----------------0-----------------0-----------------2--------| 
G|--------1-----1-----------3-----3-----------3-----3-----------4-----4-----| 
D|-----2-----------2-----4-----------4-----2-----------2-----4-----------4--| 
A|--------------------------------------------------------------------------| 
E|--0-----------------2-----------------3-----------------4-----------------| ​ 

Regalándome estrellas yo te ví 
E|--------------------------------------------------x-----------------------| 
B|-----------0-----------------0-----------4-----2--x-----0--------2--------| 
G|--------1-----1-----------3-----3-----------------x-----------------1-----| 
D|-----2-----------2-----4-----------4-----4-----2--x-----1-----2--------2--| 
A|--------------------------------------2-----2-----x--2-----2--------------| 
E|--0-----------------2-----------------------------x-----------------------| 

Hoy te extrañé más que nunca, como en cada día 
E|-----------------------------------------------------------------3--------| 
B|-----------0-----------------0-----------------4--------------2-----2-----| 
G|--------1-----1-----------3-----3-----------4-----4--------3-----------3--| 
D|-----2-----------2-----4-----------4-----4-----------4--1-----------------| 
A|--------------------------------------2-----------------------------------| 
E|--0-----------------2-----------------------------------------------------| ​ 

Y ojalá nos veamos una vez más 
E|-----------------------------------------------------------------2--------| 
B|-----------0-----------------0-----------------4--------4-----------------| 
G|--------1-----1-----------3-----3-----------4-----4-----2-----------2-----| 
D|-----2-----------2-----4-----------4-----4-----------4-----4-----------4--| 
A|--------------------------------------2-----------------2-----2-----------| 
E|--0-----------------2-----------------------------------------------------| ​ 

Pero si no nos toca, aun así diré con alegría 
E|--------------------------------------------------------------------------| 
B|-----------0-----------------0-----------------4-----------------2--------| 
G|--------1-----1-----------3-----3-----------4-----4-----------0-----0-----| 
D|-----2-----------2-----4-----------4-----4-----------4-----2-----------2--| 
A|--------------------------------------2-----------------1-----------------| 
E|--0-----------------2-----------------------------------------------------| ​ 

Que te guardo dentro mío todavía 
E|--------------------------------------------------x-----------------------| 
B|-----------0-----------------0-----------4-----2--x-----0--------2--------| 
G|--------1-----1-----------3-----3-----------------x-----------------1-----| 
D|-----2-----------2-----4-----------4-----4-----2--x-----1-----2--------2--| 
A|--------------------------------------2-----2-----x--2-----2--------------| 
E|--0-----------------2-----------------------------x-----------------------| 

E|--------------x-----------------------| 
B|-----4-----2--x-----0--------2--------| 
G|--------------x-----------------1-----| 
D|-----4-----2--x-----1-----2--------2--| 
A|--2-----2-----x--2-----2--------------| 
E|--------------x-----------------------| 

​​En muchos otros ojos te busqué 
E|--------------x-----------------------------------x-----------------------| 
B|-----4-----2--x-----0--------2-----------4-----2--x-----0--------2--------| 
G|--------------x-----------------1-----------------x-----------------1-----| 
D|-----4-----2--x-----1-----2--------2-----4-----2--x-----1-----2--------2--| 
A|--2-----2-----x--2-----2--------------2-----2-----x--2-----2--------------| 
E|--------------x-----------------------------------x-----------------------| 

​Y perdí tanto tiempo buscando porqués 
E|--------------x-----------------------------------x-----------------------| 
B|-----4-----2--x-----0--------2-----------4-----2--x-----0--------2--------| 
G|--------------x-----------------1-----------------x-----------------1-----| 
D|-----4-----2--x-----1-----2--------2-----4-----2--x-----1-----2--------2--| 
A|--2-----2-----x--2-----2--------------2-----2-----x--2-----2--------------| 
E|--------------x-----------------------------------x-----------------------| 

​Me costó entender que no me sirve el entender 
E|--------------------------------------------------------------------------| 
B|-----------0-----------------0-----------------0-----------------2--------| 
G|--------1-----1-----------3-----3-----------3-----3-----------4-----4-----| 
D|-----2-----------2-----4-----------4-----2-----------2-----4-----------4--| 
A|--------------------------------------------------------------------------| 
E|--0-----------------2-----------------3-----------------4-----------------| 

Y que nuestra nada valió mucho, y que el paraíso tiene 
E|-----------------------------------------------------------------2--------| 
B|-----------0-----------------0-----------------4--------4-----------------| 
G|--------1-----1-----------3-----3-----------4-----4-----2-----------2-----| 
D|-----2-----------2-----4-----------4-----4-----------4-----4-----------4--| 
A|--------------------------------------2-----------------2-----2-----------| 
E|--0-----------------2-----------------------------------------------------| ​​​ 

Te extrañé más que nunca, como en cada día 
E|-----------------------------------------------------------------3--------| 
B|-----------0-----------------0-----------------4--------------2-----2-----| 
G|--------1-----1-----------3-----3-----------4-----4--------3-----------3--| 
D|-----2-----------2-----4-----------4-----4-----------4--1-----------------| 
A|--------------------------------------2-----------------------------------| 
E|--0-----------------2-----------------------------------------------------| ​ 

Y ojalá nos veamos una vez más 
E|-----------------------------------------------------------------2--------| 
B|-----------0-----------------0-----------------4--------4-----------------| 
G|--------1-----1-----------3-----3-----------4-----4-----2-----------2-----| 
D|-----2-----------2-----4-----------4-----4-----------4-----4-----------4--| 
A|--------------------------------------2-----------------2-----2-----------| 
E|--0-----------------2-----------------------------------------------------| ​ 

Pero si no nos toca, aun así diré con alegría 
E|--------------------------------------------------------------------------| 
B|-----------0-----------------0-----------------4-----------------2--------| 
G|--------1-----1-----------3-----3-----------4-----4-----------0-----0-----| 
D|-----2-----------2-----4-----------4-----4-----------4-----2-----------2--| 
A|--------------------------------------2-----------------1-----------------| 
E|--0-----------------2-----------------------------------------------------| ​ 

Que te guardo dentro mío, yo te llevo conmigo todavía 
E|--------------------------------------------------------0-----------------| 
B|-----------0-----------------0-----------------0--------2-----------------| 
G|--------1-----1-----------3-----3-----------1-----1-----2-----------------| 
D|-----2-----------2-----4-----------4-----2-----------2--2-----------------| 
A|--------------------------------------------------------0-----------------| 
E|--0-----------------2-----------------0-----------------------------------| ​ 

(intervalo antes del fín - ralentando) 
E|--------------x-----------------------------------x-----------------------| 
B|-----4-----2--x-----0--------2-----------4-----2--x-----0--------2--------| 
G|--------------x-----------------1-----------------x-----------------1-----| 
D|-----4-----2--x-----1-----2--------2-----4-----2--x-----1-----2--------2--| 
A|--2-----2-----x--2-----2--------------2-----2-----x--2-----2--------------| ​ 
E|--------------x-----------------------------------x-----------------------| 

Final 

E|-----| 
B|-----| 
G|--3--| 
D|--1--| 
A|--2--| 
E|--2--| 
    	

enviado porenviado por: sabrjoao
cifra enviadaCorrigida por: sem correções
logo top cifrasComente
ico música do artistaMúsicas deste artista
ico curtiuCurtiu?
ico destaqueDestaque
Petaxxon Comunicação Online

Cifras.com.br - Melhor e mais completo site de cifras e tablaturas do Brasil Mais de 1 milhão de acordes de músicas cadastradas desde 2003
As informações contidas no nosso site são colaborações de seus usuários e podem conter erros, sendo assim, não nos responsabilizamos sobre nenhuma destas.

close
menos
mais
close
Cor dos acordes:

Cor da letra:

close
Alinhar acordes a direita Alinhar acordes a esquerda Alinhar acordes em baixo Alinhar acordes no topo
close
  Mostrar todos os acordes Esconder acordes muito fáceis Esconder acordes fáceis Esconder acordes intermediários
redimensionar
glossário