Cifras e Tablaturas
Hands Like Houses

Hands Like Houses

Introduced Species

Cifras Cancelar Versão de Impressão Print

Hands Like Houses - Introduced Species

Tom:

  			INTRO (part 1) 

Synth 1 
Delay 
E|-------------------------| 
B|-------------------------| 
G|----------15----------15-| 
D|-17-15-13----17-15-13----| 
A|-------------------------| 
D|-------------------------| 

Synth 2 
(repeatedly) 
E|-------------| 
B|-11-13-15-19-| 
G|-------------| 
D|-------------| 
A|-------------| 
D|-------------| 

INTRO (part 2) 

Electric 1 

E|---------------------------    ---------------------------| 
B|----------13---------------    -------------13------------| 
G|--------15--12------12-----    -----------15--12-----12---| 
D|---------------1515----15--    ----13--13--------1515--15-| x3 
A|-151515--------------------    --15--15-------------------| 
D|---------------------------    ---------------------------| 

Electric 2 

E|------| 
B|------| 
G|------| 
D|-10-6-| 
A|-10-6-| 
D|-10-6-| 

VERSE 

Electric 1 

E|-15-18-20-13-| 
B|-------------| 
G|-------------| 
D|-------------| 
A|-------------| 
D|-------------| 

Pre-Chorus 

Electric 1 

E|------------| 
B|------------| 
G|-12-8-10-13-| 
D|-x--x-x--x--| 
A|-10-6-8--11-| 
D|------------| 

Electric 2 

E|------------| 
B|------------| 
G|------------| 
D|-10-1-3-6-8-| 
A|-10-1-3-6-8-| 
D|-10-1-3-6-8-| 

Chorus (part 1) 

Electric 1 

E|----------| 
B|----------| 
G|-13-17-15-| 
D|-x--x--x--| 
A|-11-15-13-| 
D|----------| 

Electric 2 

E|-----------| 
B|-----------| 
G|-----------| 
D|-6-10-8-10-| 
A|-6-10-8-10-| 
D|-6-10-8-10-| 

Chorus (part 2) 

Electric 1 

E|-20-18-15----15----------------------15----------| 
B|----------18----18-16-x2-15-15-16-18----18-16-15-| 
G|-------------------------------------------------| 
D|-------------------------------------------------| 
A|-------------------------------------------------| 
D|-------------------------------------------------| 

--20-18-15----15-------20-18-15--------------| 
-----------18----18-16----------16b-15-13----| 
------------------------------------------15-| 
---------------------------------------------| 
---------------------------------------------| 
---------------------------------------------| 

Electric 2 

E|-----------| 
B|-----------| 
G|-----------| 
D|-6-10-8-10-| 
A|-6-10-8-10-| 
D|-6-10-8-10-| 

INTRO (part 2) 

VERSE 

Pre-Chorus ADD.. 

Electric 1 

E|-15----| 
B|----13-| 
G|-------| 
D|-------| 
A|-------| 
D|-------| 

Chorus 

BRIDGE (part 1) 

Electric 1 
Clean 
E|-------------------------| 
B|-------------------------| 
G|-------------------------| 
D|-15-17-15-12-13-12-------| 
A|-------------------15-13-| 
D|-------------------------| 

Electric 2 
Clean 
E|--------------| 
B|--------------| 
G|--------------| 
D|--------------| 
A|--------------| 
D|-6-8-10-13-12-| 

BRIDGE (part 2) 

Electric 1 
Clean 
E|---------------------------    ---------------------------| 
B|----------13---------------    -------------13------------| 
G|--------15--12------12-----    -----------15--12-----12---| 
D|---------------1515----15--    ----13--13--------1515--15-| x3 
A|-151515--------------------    --15--15-------------------| 
D|---------------------------    ---------------------------| 

Chorus 

OUTRO 

Electric 1 

E|-----------------------| 
B|-/13-11----------------| 
G|--------12-10----------| 
D|--------------13-12-10-| 
A|-----------------------| 
D|-----------------------| 
    	
fixar
fixar inscrever-se

enviado porenviado por: robepoiel
cifra enviadaCorrigida por: sem correções
logo top cifrasComente
ico música do artistaMúsicas deste artista
ico curtiuCurtiu?
ico destaqueDestaque
Petaxxon Comunicação Online

Cifras.com.br - Melhor e mais completo site de cifras e tablaturas do Brasil Mais de 1 milhão de acordes de músicas cadastradas desde 2003
As informações contidas no nosso site são colaborações de seus usuários e podem conter erros, sendo assim, não nos responsabilizamos sobre nenhuma destas.

close
menos
mais
close
Cor dos acordes:

Cor da letra:

close
Alinhar acordes a direita Alinhar acordes a esquerda Alinhar acordes em baixo Alinhar acordes no topo
close
  Mostrar todos os acordes Esconder acordes muito fáceis Esconder acordes fáceis Esconder acordes intermediários
redimensionar
glossário