Cifras e Tablaturas
Harpa Cristã

Harpa Cristã

A Palavra Da Cruz

Cifras Cancelar Versão de Impressão Print

Harpa Cristã - A Palavra Da Cruz

Tom:

  			E|-------------1-|-----------------|-------------6-8-|-6-------5---8-10-| 
B|---------------|-----------1-----|-6---------------|---------------6--| 
G|---------------|-3----2--3---7-8-|-------------7-8-|-7-------5---8----| 
D|-------------3-|-------------0---|-----------------|-------------7-8--| 
A|---------------|-1----0--1-3---6-|-8-----------8-8-|-8-------8---8-8--| 
E|---------------|-----------------|-----------------|------------------| 

E|-8-------6-----|-----------------|-------------8--10-|-8-------5---6-3-| 
B|-------------8-|------0--------6-|-8-----------------|---------6---5-5-| 
G|-8-------7-----|-5-------5-7-8---|-0-----------9--9--|-10------5---0-3-| 
D|-7-------8---5-|-----------------|----------------8--|-----------------| 
A|-8-------------|-----------5-6-8-|-------------10----|-12------------3-| 
E|---------6-----|-8----7--8-------|-------------8--8--|-8-------8---8---| 

E|-3-------------3-|-5---5---5---6-0-|-5-----------5-6-|-8---8---8---10-7-| 
B|-5-------6---6---|-6---6---6---8-8-|-6-----------6-8-|-10--10--10--11-9-| 
G|-3-------2-------|-----------------|-----------------|------------------| 
D|---------3-------|-----------------|-----------------|------------------| 
A|-3---------------|-----------------|-----------------|------------------| 
E|-----------------|-----------------|-----------------|------------------| 

E|-8-----------8--10-|-11--11--11----10-8--|-------------11-11-|-10---6--8----8-| 
B|-10-------------11-|-10--10--10-13-11-10-|-------------8--8--|------6--6----6-| 
G|-------------10----|---------------10-8--|-------------------|-10---7--8----8-| 
D|-------------------|-10--10--10----------|-------------8--8--|-8--------------| 
A|-------------12-13-|---------------------|-1-----------------|-8----8--8----8-| 
E|-------------13-13-|-13--13--13----13----|-------------11-11-|----------------| 

E|-6-----------6-8-|-10--10-------11-10-|-8---8-----------5-6-| 
B|-6---------------|-6---6--6-6-6-8-----|-----------------6-6-| 
G|-7-----------7-8-|-----7--7-7-7----10-|-8---8--10-10-10-5-7-| 
D|-----------------|-----8--8-8-8-------|-----10-10-10-10---8-| 
A|-----------------|--------------------|-----12-12-12-12-8-8-| 
E|-6---------------|-----6--6-6-6-------|-----13-13-13-13-----| 

E|-8-----8-10-8----8--|-10-----------6-8-|-10--10-6-6-6-13-13-| 
B|-6-6-6-6-6----11----|-6--6-6-6-6-------|-6---6--------------| 
G|---8-8--------10-10-|-7--7-7-7-7---7-8-|--------7-7-7-13-13-| 
D|-7-7-7-7-7----0--13-|-8--8-8-8-8-------|--------------------| 
A|-8-8-8-8-8--6-13-12-|------------------|-----8--8-8-8-------| 
E|-----------------8--|-6--6-6-6-6-------|-----6--6-6-6-------| 

E|-13--11----------11-11-|-10-------10-10-------8--|-6-----------6-8-| 
B|-----11-11-11-11-11-11-|-11-11-11-11-10-10-10-10-|-6---------------| 
G|-13--12-12-12-12-0--12-|-10-10----10-10-10-10-10-|-7-----------7-8-| 
D|-----------------------|-------12----------------|-------------8-8-| 
A|-----13-13-13-13----13-|-13-13-13-13----------8--|-8---------------| 
E|-----11-11-11-11-11-11-|-13-13-13-13-13-13-13----|-6---------------| 

E|-10--10------11-10-|-8---8-------5-6-|-8----8--10-8-6--8-|-10----------6-8-| 
B|-------------8-----|-----------------|---------6----6----|-6---------------| 
G|-10--10---------10-|-8---8-------5-7-|-8----8------------|-------------7-8-| 
D|-8---8-------8--8--|-7---7---------8-|-7----7--7----8--7-|-8-----------8-8-| 
A|-------------------|-8---8-------8-8-|-8----8--8--6------|-----------------| 
E|-------------------|-----------------|--------------10-8-|-6-----------6-6-| 

E|-10--10------13-13-|-13--11------11-11-|-10---10-10---8--|-6------------| 
B|-6---6-------------|-------------------|-----------------|-3------------| 
G|-------------13-13-|-13--12------12-12-|-10---10-10---8--|-3------------| 
D|-8---8-------0--0--|-------------------|-----------------|-3------------| 
A|-------------13-13-|-13--13------13-13-|-13---13-13---12-|--------------| 
E|-6---6-------------|-11--11------11-11-|-13---13-13---13-|-6------------| 
    	
fixar
fixar inscrever-se

enviado porenviado por: edsooliveira
cifra enviadaCorrigida por: sem correções
logo top cifrasComente
ico música do artistaMúsicas deste artista
ico curtiuCurtiu?
ico destaqueDestaque
Petaxxon Comunicação Online

Cifras.com.br - Melhor e mais completo site de cifras e tablaturas do Brasil Mais de 1 milhão de acordes de músicas cadastradas desde 2003
As informações contidas no nosso site são colaborações de seus usuários e podem conter erros, sendo assim, não nos responsabilizamos sobre nenhuma destas.

close
menos
mais
close
Cor dos acordes:

Cor da letra:

close
Alinhar acordes a direita Alinhar acordes a esquerda Alinhar acordes em baixo Alinhar acordes no topo
close
  Mostrar todos os acordes Esconder acordes muito fáceis Esconder acordes fáceis Esconder acordes intermediários
redimensionar
glossário