Cifras e Tablaturas
HB

HB

Time Of Silence

Cifras Cancelar Versão de Impressão
cifras

HB - Time Of Silence

fixar na tela  
Exibindo: vídeo-aula ver clipes redimensionar
  
E|-------------------------------------------------------------| 
B|-------------------------------------------------------------| 
G|-------------------------------------------------------------| 
D|-2-0--0-3-0-2-0--(3X)-0-3-0-5-5-5----------------------------| 
A|-2-0--0-3-0-2-0-------0-3-0-5-5-5----------------------------| 
D|-2-0--0-3-0-2-0-------0-3-0-5-5-5----------------------------| 
 


(Verso) 
 
        Em      D       G       Am      Em      D       Am 
E|--------------------------------------------------------------| 
B|--------------------------------------------------------------| 
G|--------------------------------------------------------------| 
D|------2------0-------5------7------2------0-------7-----------| 
A|------2------0-------5------7------2------0-------7-----------| 
D|------2------0-------5------7------2------0-------7-----------| 
 

(Refrão)  
 
        C       Am      G       F#m     Em 
E|-------------------------------------------------------------| 
B|-------------------------------------------------------------| 
G|-------------------------------------------------------------| 
D|-----10------7------5--------4-------2-----------------------| 
A|-----10------7------5--------4-------2-----------------------| 
D|-----10------7------5--------4-------2-----------------------| 
 


(Riff) 
 
E|-------------------------------------------------------------| 
B|-------------------------------------------------------------| 
G|-------------------------------------------------------------| 
D|--2-2-x-2-x-2-2--5-4-2-/-8-----------------------------------| 
A|--2-2-x-2-x-2-2--5-4-2-/-8-----------------------------------| 
D|--2-2-x-2-x-2-2--5-4-2-/-8-----------------------------------| 
  

cifra enviadasem correções
enviado porenviada por:andrsouza
top 5 | hb
top pop music
Outras músicas do artista letras do(a) HB
Top cifras »Top artistas »
Petaxxon Comunicação Online
Cifras.com.br - Melhor e mais completo site de cifras e tablaturas do Brasil
Mais de 1 milhão de acordes de músicas cadastradas desde 2003
As informações contidas no nosso site são colaborações de seus usuários e podem conter erros, sendo assim, não nos responsabilizamos sobre nenhuma destas.
close
menos
mais
close
Cor dos acordes:

Cor da letra:

 

save
close
close
 
redimensionar