Cifras e Tablaturas
Hein Cooper

Hein Cooper

The Art Of Escape

Cifras Cancelar Versão de Impressão
cifras

Hein Cooper - The Art Of Escape

fixar na tela  
Exibindo: vídeo-aula ver clipes redimensionar
  
(Intro) 

e|----------------------------------------------------------------------------------------|  
B|--0-------1------0-------0-------1------0--------0-1-0----------0-----------------------| 
G|--0----------------------0-----------------------------2--------------2-----------------|  
D|----------------------------------------------------------------------------------------| 
A|--3-----3-----3-----3----3-----3-----3-----3-----3-----3-----3-----3---------3-5-7-5-3--| 
E|-------------------------------------------------------------------------3-5------------| 

e|----------------------------------------------------------------------------------------|  
B|--0-------1------0-------0-------1------0--------0-1-0----------0-----------------------| 
G|--0----------------------0-----------------------------2--------------2-----------------|  
D|----------------------------------------------------------------------------------------| 
A|-----------------------------------------------------------------------------3-5-7-5-3--| 
E|--1-----1-----1-----1----1-----1-----1-----1-----1-----1-----1-----1-----3-5------------| 

e|----------------------------------------------------------------------------------------| 
B|--5------1-------3------5---------------------------------------------------------------| 
G|----0------0--------0-------------------------------------------------------------------| 
D|----------------------------------------------------------------------------------------| 
A|------------------------3---------------------------------------------------------------| 
E|--5------1-------3----------------------------------------------------------------------| 


(Verse) 
  "Kiss.."                                                            "Push-me-ov-er" 

e|----------------------------------------------------------------------------------------|  
B|--0-------1------0-------0-------1------0--------0--------1----0-------1--0--0----------| 
G|--0----------------------0-----------------------0---------------------0--0--2--2-------|    
D|--------------------------------------------------------------------------------2-------| 
A|--3-----3-----3-----3----3-----3-----3-----3-----3-----3-----3-----3---3--3--3--3-------|    
E|----------------------------------------------------------------------------------------| 

   "Into the sea" 

e|----------------------------------------------------------------------------------------|  
B|--0-------1----------------0-------1---------------5-----1-----3------------------------| 
G|--0--------------0---------0--------------0----------0-----0-----0----------------------| 
D|----------------------------------------------------------------------------------------| 
A|----------------------------------------------------------------------------------------| 
E|--1-----1-----1------1-----1-----1----1------1-----5-----1-----3------------------------| 

(Straight back into intro.) 


 (Chorus)  -Em - F - Am - G for the "art of escape" bit.  

  "I could give it one more try.."         "Take- my-  Side" 

e|----------------------------------------------------------------------------------------| 
B|-----------------0------------------------5-----1-----3---------------------------------| 
G|-----------------0--------------------------0-----0-----0-------------------------------| 
D|----------------------------------------------------------------------------------------| 
A|-----3-5-7-5-3-2------------------------------------------------------------------------| 
E|-3-5-------------1------------------------5-----1-----3---------------------------------| 

 "As we perfect the Ar-rt, the ar-rt of escape" 

e|----------------------------------------------------------------------------------------|  Play intro 
B|------------------0--1-------5--3-------------------------------------------------------|  on "escape" 
G|------------------0--0-------0--0-------------------------------------------------------| 
D|----------------------------------------------------------------------------------------| 
A|----------------------------------------------------------------------------------------| 
E|------------------0--1-------5--3-------------------------------------------------------| 


(Outro or Bridge is just palm muted Em - F - Am - G) 
  

cifra enviadasem correções
enviado porenviada por:carlluz
top 5 | hein cooper
top rock'n roll
Outras músicas do artista letras do(a) Hein Cooper
Top cifras »Top artistas »
Petaxxon Comunicação Online
Cifras.com.br - Melhor e mais completo site de cifras e tablaturas do Brasil
Mais de 1 milhão de acordes de músicas cadastradas desde 2003
As informações contidas no nosso site são colaborações de seus usuários e podem conter erros, sendo assim, não nos responsabilizamos sobre nenhuma destas.
close
menos
mais
close
Cor dos acordes:

Cor da letra:

 

save
close
close
 
redimensionar