Cifras e Tablaturas
Heldmaschine

Heldmaschine

Alles Was Du Brauchst

Cifras Cancelar Versão de Impressão
cifras

Heldmaschine - Alles Was Du Brauchst

fixar na tela  
Exibindo: vídeo-aula ver clipes redimensionar

Tom:

  
Intro 
e|------|-------|------| 
B|------|-------|------| 
G|------|-------|------| 
D|7-7---|-------|7-7---|(x4) 
A|5-5---|-------|5-5---| 
D|------|-------|------| 
  * *            * * 

Pre-Chorus 
e|-------|-------|-------|-------|-------|-------| 
B|-------|-------|-------|-------|-------|-------| 
G|-------|-------|-------|-------|-------|-------| 
D|-------|-------|-------|-------|-------|-------| 
A|5-5-5-5|4-4-4-4|3-3-3-3|2-2-2-2|1-1-1-1|0-0-0-0| 
D|-----------------------------------------------| 

Chorus 
e|---------|---------|-----| 
B|---------|---------|-----| 
G|---------|---------|-----| 
D|----7/5\5|7/5\7----|7/5\7|(x6) 
A|5-5-5/3\5|5/3\5-5-5|5/3\5| 
D|---------|---------|-----| 
  * *             * * 

e|---------|---------|-----| 
B|---------|---------|-----| 
G|---------|---------|-----| 
D|7-7-5/3\5|5/3\5----|5/3\5| 
A|5-5-5/3\5|5/3\5----|5/3\5| 
D|----5/3\5|5/3\5-5-5|5/3\5| 
  * *             * * 

Verse 
e|------|-------|------| 
B|------|-------|------| 
G|------|-------|------| 
D|7-7---|-------|7-7---|(x4) 
A|5-5---|-------|5-5---| 
D|------|-------|------| 
  * *            * * 

Pre-Chorus 
e|-------|-------|-------|-------|-------|-------| 
B|-------|-------|-------|-------|-------|-------| 
G|-------|-------|-------|-------|-------|-------| 
D|-------|-------|-------|-------|-------|-------| 
A|5-5-5-5|4-4-4-4|3-3-3-3|2-2-2-2|1-1-1-1|0-0-0-0| 
D|-------|-------|-------|-------|-------|-------| 

Chorus 
e|---------|---------|-----| 
B|---------|---------|-----| 
G|---------|---------|-----| 
D|----7/5\5|7/5\7----|7/5\7|(x6) 
A|5-5-5/3\5|5/3\5-5-5|5/3\5| 
D|---------|---------|-----| 
  * *             * * 

e|---------|---------|-----| 
B|---------|---------|-----| 
G|---------|---------|-----| 
D|7-7-5/3\5|5/3\5----|5/3\5| 
A|5-5-5/3\5|5/3\5----|5/3\5| 
D|----5/3\5|5/3\5-5-5|5/3\5| 

Verse 
e|------|-------|------| 
B|------|-------|------| 
G|------|-------|------| 
D|7-7---|-------|7-7---|(x4) 
A|5-5---|-------|5-5---| 
D|------|-------|------| 
  * *            * * 

Verse 
e|------|-------|------| 
B|------|-------|------| 
G|------|-------|------| 
D|7-7---|-------|7-7---|(x4) 
A|5-5---|-------|5-5---| 
D|------|-------|------| 
                 * * 

Chorus 
e|---------|---------|-----| 
B|---------|---------|-----| 
G|---------|---------|-----| 
D|----7/5\5|7/5\7----|7/5\7|(x6) 
A|5-5-5/3\5|5/3\5-5-5|5/3\5| 
D|---------|---------|-----| 
  * *             * * 

e|---------|---------|-----| 
B|---------|---------|-----| 
G|---------|---------|-----| 
D|7-7-5/3\5|5/3\5----|5/3\5| 
A|5-5-5/3\5|5/3\5----|5/3\5| 
D|----5/3\5|5/3\5-5-5|5/3\5| 



************************************ 

| /   Slide up 
| \   Slide down 
| *   Palm mute 

************************************ 
  

top 5 | heldmaschine
top rock'n roll
Outras músicas do artista letras do(a) Heldmaschine
Top cifras »Top artistas »
Petaxxon Comunicação Online
Cifras.com.br - Melhor e mais completo site de cifras e tablaturas do Brasil
Mais de 1 milhão de acordes de músicas cadastradas desde 2003
As informações contidas no nosso site são colaborações de seus usuários e podem conter erros, sendo assim, não nos responsabilizamos sobre nenhuma destas.
close
menos
mais
close
Cor dos acordes:

Cor da letra:

 

save
close
close
 
redimensionar