Cifras e Tablaturas
Henry Mancini

Henry Mancini

The Pinter The Panter Theme

Cifras Cancelar Versão de Impressão
cifras

Henry Mancini - The Pinter The Panter Theme

fixar na tela  
Exibindo: vídeo-aula ver clipes redimensionar

Tom:

  
E|------------------------------------------------------------------- 
B|------------------------------------------------------------------- 
G|----------------------5\4------4-3-2-0----------------------------- 
D|------4\5-------4\5---------5----------2-0-2-2--------------------- 
A|-6\7-------6\7------------7---------------------------------------- 
E|------------------------------------------------------------------- 

E|------------------------------------------------------------------- 
B|------------------------------------------------------------------- 
G|----------------------5\4------5-4--------------------------------- 
D|------4\5-------4\5---------5-------------------------------------- 
A|-6\7-------6\7------------7---------------------------------------- 
E|------------------------------------------------------------------- 

E|------------------------------------------------------------------- 
B|------------------------------------------------------------------- 
G|----------------------5\4------4-3-2-0----------------------------- 
D|------4\5-------4\5---------5----------2-0-2-2--------------------- 
A|-6\7-------6\7------------7---------------------------------------- 
E|------------------------------------------------------------------- 
 
E|---------------0--------------------------------------------------- 
B|-----------------3-0----------------------------------------------- 
G|----------------------2-0-----2\3-2\3-2\3-2\3----2-0--------------- 
D|---------------------------2------------------------------2-0-2-2-- 
A|-4\5-6\7----------------------------------------------------------- 
E|------------------------------------------------------------------- 
 
E|-----------------1------------------------------------------------- 
B|------------2-3----4-2-----------------------2h3p2----1------------ 
G|----0-2-3--------------3-0-3h5p3-0-2-0-3---------3----3------------ 
D|--4---------------------------------------------------------------- 
A|------------------------------------------------------------------- 
E|------------------------------------------------------------------- 
 
E|------------------------------------------------------------------- 
B|------------------------------------------------------------------- 
G|--0---------------------------------------------------------------- 
D|-----3-2h3-2h3-2h3-2h3-2h3-4-5-5\0--------------------------------- 
A|------------------------------------------------------------------- 
E|------------------------------------------------------------------- 

E|------------------------------------------------------------------- 
B|--------1-2-2-2-2--------------1-2-2-2-2-1------------------------- 
G|--0-3--------------3-0-3--0-3---------------3-0-------------------- 
D|-----------------------------------------------------3-0----------- 
A|------------------------------------------------------------------- 
E|------------------------------------------------------------------- 
 
E|------------------------------------------------------------------- 
B|------------------------------------------------------------------- 
G|---3-3-----2-2-0--------------------------------------------------- 
D|-5-------4--------------------------------------------------------- 
A|------------------------------------------------------------------- 
E|------------------------------------------------------------------- 
  

top 5 | henry mancini
top oldies
Outras músicas do artista letras do(a) Henry Mancini
Top cifras »Top artistas »
Petaxxon Comunicação Online
Cifras.com.br - Melhor e mais completo site de cifras e tablaturas do Brasil
Mais de 1 milhão de acordes de músicas cadastradas desde 2003
As informações contidas no nosso site são colaborações de seus usuários e podem conter erros, sendo assim, não nos responsabilizamos sobre nenhuma destas.
close
menos
mais
close
Cor dos acordes:

Cor da letra:

 

save
close
close
 
redimensionar