Cifras e Tablaturas
Heroes del silencio

Heroes del silencio

Agosto

Ano: 1993
Album : Tour 2007 (2 CDs)

Cifras Cancelar Versão de Impressão Print

Heroes del silencio - Agosto

Tom: A

  			E ------------------------------------5------} 
B -------------5----------------------5------} 
G --6------------6---6----------------6------} 
D ----7---4-7------7---7----7---------7------} 
A ------5-----------------7------7----7------} 
E -----------------------------7---7---------} 
 
                                      A 
E ------------------------------------5------} 
B ------5-----5--5--------------------5------} 
G --------------6--6------------------6------} 
D ----7---7------7--7--7-----7--------7------} 
A --7----------------------7-----7----7------} 
E ---------------------5-------7---7---------}     
 
                                      A 
E ------------------------------------5------} 
B ------5-----5--5--------------------5------} 
G --------------6--6------------------6------} 
D ----7---7------7--7--7-----7--------7------} 
A --7----------------------7-----7----7------} 
E ---------------------5-------7---7---------}   
 
        A         A         A         A 
E -----0--0------0--0------0--0------0--0----}  
B ------2--2------2--2------2--2------2--2---}  
G ----------2---------2---------2------------}  
D -------------------------------------------}  
A --0----------0---------0---------0---------}  
E -------------------------------------------}  
 
        D         D         D         D 
E -----2--2------2--2------2--2------2--2----} 
B ------3--3------3--3------3--3------3--3---} 
G ----------2---------2---------2------------} 
D --0---------0----------0---------0---------} 
A -------------------------------------------} 
E -------------------------------------------}    

    	
fixar
fixar inscrever-se

enviado porenviado por: ironmejiab
cifra enviadaCorrigida por: sem correções
logo top cifrasComente
ico música do artistaMúsicas deste artista
ico curtiuCurtiu?
ico destaqueDestaque
Petaxxon Comunicação Online

Cifras.com.br - Melhor e mais completo site de cifras e tablaturas do Brasil Mais de 1 milhão de acordes de músicas cadastradas desde 2003
As informações contidas no nosso site são colaborações de seus usuários e podem conter erros, sendo assim, não nos responsabilizamos sobre nenhuma destas.

close
menos
mais
close
Cor dos acordes:

Cor da letra:

close
Alinhar acordes a direita Alinhar acordes a esquerda Alinhar acordes em baixo Alinhar acordes no topo
close
  Mostrar todos os acordes Esconder acordes muito fáceis Esconder acordes fáceis Esconder acordes intermediários
redimensionar
glossário