Cifras e Tablaturas
Heroes del silencio

Heroes del silencio

El Cuadro 2

Compositor : (Heroes del silencio)

Cifras Cancelar Versão de Impressão Print

Heroes del silencio - El Cuadro 2

Tom: Em

  			cuadro II 
heroes del silencio 

INTRO: 

  Em                                 Am 
E---------------------------------|-------------------------------------| 
B---------------------------------|--------------------------------1----| 
G-0-------0--------0------0-------|-0-------0-------0-------0--------0--| 
D---2---2---2---2---2---2---2---2-|---2---2---2---2---2---2---2---2----2| 
A-----2-------2-------2-------2---|-----0-------0-------0-------0-------| 
e---------------------------------|-------------------------------------| 

 Em                                      Am 
E--------------------------------------|--------------------------------| 
B--------------------------------3-----|--------------------------------| 
G-0-------0-------0-------0--------0---|-0-------0-------0-------0------| 
D---2---2---2---2---2---2---2---2----2-|---2---2---2---2---2---2---2----| 
A-----0-------0-------0-------0--------|-----0-------0-------0------0---| 
e--------------------------------------|--------------------------------| 

   Dm                     C                   Bm                   Am 
      mi__s   o__jo__s   van al cu__adr__o    alg_o  se a il_uminad_____o 
E-------------5-5-------|-------------------|--------2---------2-----2--| 
B------6-5--------6-5---|-------5---6-5-----|----------3---------2-----2| 
G----------7----------7-|-----5---5-----5---|-----4------4---4-----4----| 
D---7-------------------|---5---------------|---4----------4------------| 
A-5---------------------|-3-----------------|-2-------------------------| 
e-----------------------|-------------------|---------------------------| 

   Dm                     C                   Bm                   Am 
y en su interior las figuras danzan de mira  me mir_ fijam_ y se agrand_a 
E-------------5-5-------|-------------------|--------2---------2-----2--| 
B------6-5--------6-5---|-------5---6-5-----|----------3---------2-----2| 
G----------7----------7-|-----5---5-----5---|-----4------4---4-----4----| 
D---7-------------------|---5---------------|---4----------4------------| 
A-5---------------------|-3-----------------|-2-------------------------| 
e-----------------------|-------------------|---------------------------| 


  Em                                 Am 
E---------------------------------|-------------------------------------| 
B---------------------------------|--------------------------------1----| 
G-0-------0--------0------0-------|-0-------0-------0-------0--------0--| 
D---2---2---2---2---2---2---2---2-|---2---2---2---2---2---2---2---2----2| 
A-----2-------2-------2-------2---|-----0-------0-------0-------0-------| 
e---------------------------------|-------------------------------------| 

 Em                                      Am 
E--------------------------------------|--------------------------------| 
B--------------------------------3-----|--------------------------------| 
G-0-------0-------0-------0--------0---|-0-------0-------0-------0------| 
D---2---2---2---2---2---2---2---2----2-|---2---2---2---2---2---2---2----| 
A-----0-------0-------0-------0--------|-----0-------0-------0------0---| 
e--------------------------------------|--------------------------------| 




  Dm                     C                   Bm                   Am 
  mi cu__erp____o     pesa   men______os       sien_to  que me elev___o 
E-------------5-5-------|-------------------|--------2---------2-----2--| 
B------6-5--------6-5---|-------5---6-5-----|----------3---------2-----2| 
G----------7----------7-|-----5---5-----5---|-----4------4---4-----4----| 
D---7-------------------|---5---------------|---4----------4------------| 
A-5---------------------|-3-----------------|-2-------------------------| 
e-----------------------|-------------------|---------------------------| 

  Dm                     C                   Bm                   Am 
la pistola de guarjol sin munición          se nu... en mi ce.. la si..  
E-------------5-5-------|-------------------|--------2---------2-----2--| 
B------6-5--------6-5---|-------5---6-5-----|----------3---------2-----2| 
G----------7----------7-|-----5---5-----5---|-----4------4---4-----4----| 
D---7-------------------|---5---------------|---4----------4------------| 
A-5---------------------|-3-----------------|-2-------------------------| 
e-----------------------|-------------------|---------------------------| 

(piano) 
D-Am-D-Am 


Dm                       Am                      Bm 
E-----------------------|----------------------|-------3-2--------3-2-| 
B---6---5------6---5----|---5---3------5---3---|---3----------3-------| 
G-----7---7------7----7-|-----5---5------5---5-|-----4----------4-----| 
D-7----------7----------|-5----------5---------|-4----------4---------| 
A-----------------------|----------------------|----------------------| 
e-----------------------|----------------------|----------------------| 

  Am 
E------------------------2-----| 
B---3---2-------3---2------2---| 
G-4---4---4---4---4---4------4-| 
D------------------------------| 
A------------------------------| 
e------------------------------| 

Dm                       Am                      Bm 
  ro__de___ad__o         por mir___ad__as       algo difu__mina_d_a_s 
E-----------------------|----------------------|-------3-2--------3-2-| 
B---6---5------6---5----|---5---3------5---3---|---3----------3-------| 
G-----7---7------7----7-|-----5---5------5---5-|-----4----------4-----| 
D-7----------7----------|-5----------5---------|-4----------4---------| 
A-----------------------|----------------------|----------------------| 
e-----------------------|----------------------|----------------------| 

 Am 
E------------------------2-----| 
B---3---2-------3---2------2---| 
G-4---4---4---4---4---4------4-| 
D------------------------------| 
A------------------------------| 
e------------------------------| 



  Dm                     C                   Bm                   Am 
    y habito los  colores de su inetrior   y su_ mi fi_g... una trans... 
E-------------5-5-------|-------------------|--------2---------2-----2--| 
B------6-5--------6-5---|-------5---6-5-----|----------3---------2-----2| 
G----------7----------7-|-----5---5-----5---|-----4------4---4-----4----| 
D---7-------------------|---5---------------|---4----------4------------| 
A-5---------------------|-3-----------------|-2-------------------------| 
e-----------------------|-------------------|---------------------------| 

(piano) 
D-Am-D-Am 

Dm                       Am                      Bm 
E-----------------------|----------------------|-------3-2--------3-2-| 
B---6---5------6---5----|---5---5------5---3---|---3----------3-------| 
G-----7---7------7----7-|-----5---5------5---5-|-----4----------4-----| 
D-7----------7----------|-5----------5---------|-4----------4---------| 
A-----------------------|----------------------|----------------------| 
e-----------------------|----------------------|----------------------| 

Am 
E------------------------2-----| 
B---3---2-------3---2------2---| 
G-4---4---4---4---4---4------4-| 
D------------------------------| 
A------------------------------| 
e------------------------------| 



Dm                       Am                      Bm 
  y aquellos ojos  blancos me vuelvo que azulado me obligan sentirm__e  
E-----------------------|----------------------|-------3-2--------3-2-| 
B---6---5------6---5----|---5---3------5---3---|---3----------3-------| 
G-----7---7------7----7-|-----5---5------5---5-|-----4----------4-----| 
D-7----------7----------|-5----------5---------|-4----------4---------| 
A-----------------------|----------------------|----------------------| 
e-----------------------|----------------------|----------------------| 

 Am 
as___i 
E------------------------2-----| 
B---3---2-------3---2------2---| 
G-4---4---4---4---4---4------4-| 
D------------------------------| 
A------------------------------| 
e------------------------------| 


  Em                                 Am 
E---------------------------------|-------------------------------------| 
B---------------------------------|--------------------------------1----| 
G-0-------0--------0------0-------|-0-------0-------0-------0--------0--| 
D---2---2---2---2---2---2---2---2-|---2---2---2---2---2---2---2---2----2| 
A-----2-------2-------2-------2---|-----0-------0-------0-------0-------| 
e---------------------------------|-------------------------------------| 

 Em                                      Am 
E--------------------------------------|--------------------------------| 
B--------------------------------3-----|--------------------------------| 
G-0-------0-------0-------0--------0---|-0-------0-------0-------0------| 
D---2---2---2---2---2---2---2---2----2-|---2---2---2---2---2---2---2----| 
A-----0-------0-------0-------0--------|-----0-------0-------0------0---| 
e--------------------------------------|--------------------------------| 




solo: 
  Dm                               C                              Bm 
E------------------------------------------------------------------------ 
B----------------------------------------------------------16----15----13 
G-------------------------------------------------------13----13----13--- 
D-13-13-15-16-13--13-13-15-16--11-13-15-13-11/14—12/14------------------- 
A------------------------------------------------------------------------ 
e------------------------------------------------------------------------ 
                  Am                          Dm 
E------------------------------------------------------------------------ 
B------------------------------------------15-15-17-18-15--13-15-17-15--- 
G-13h15p13----------15-------14-------14-------------------------------19 
D----------15s13p15----12/14----12/14------------------------------------ 
A------------------------------------------------------------------------ 
e------------------------------------------------------------------------ 
  C                              Bm                         Dm  
E------------------------------------------------------------------------ 
B-13-17-15-----19----18----16—------------------------------------------- 
G-----------16----16----16-----15h17p15---------------------------------- 
D--------------------------------------17s15p17-----------------12------- 
A-----------------------------------------------18-16-14-11/13--12------- 
e---------------------------------------------------------------10------- 






E------------| 
B------------| 
G------------| 
D-12-11-10-9-| 
A-12-11-10-9-| al final 
e-10-9--8--7-| 



eso es todo del cuadro yo creo que esta  
fácil esta canción espero que les guste 
ya que esta mezcla es buena. 

dudas: 
[email protected]
    	
fixar
fixar inscrever-se

enviado porenviado por: JESSBT
cifra enviadaCorrigida por: sem correções
logo top cifrasComente
ico música do artistaMúsicas deste artista
ico curtiuCurtiu?
ico destaqueDestaque
Petaxxon Comunicação Online

Cifras.com.br - Melhor e mais completo site de cifras e tablaturas do Brasil Mais de 1 milhão de acordes de músicas cadastradas desde 2003
As informações contidas no nosso site são colaborações de seus usuários e podem conter erros, sendo assim, não nos responsabilizamos sobre nenhuma destas.

close
menos
mais
close
Cor dos acordes:

Cor da letra:

close
Alinhar acordes a direita Alinhar acordes a esquerda Alinhar acordes em baixo Alinhar acordes no topo
close
  Mostrar todos os acordes Esconder acordes muito fáceis Esconder acordes fáceis Esconder acordes intermediários
redimensionar
glossário