Cifras e Tablaturas
Hillsong Music Australia

Hillsong Music Australia

Every move I make

Cifras Cancelar Versão de Impressão Print

Hillsong Music Australia - Every move I make

Tom: G

  			Start with Guitar Solo 
    G              C         D       C 
E|-10----10---10?-10-8-8-8---5?-5--7--5-3-3-3-----| 
B|------------------------------------------------| 
G|------------------------------------------------|      
D|------------------------------------------------|  x 2  
A|------------------------------------------------| 
E|------------------------------------------------| 
 
Verse 1: Every move I make I make in you, you make me????????? 
   G    G     C    C   D    D     C    C 
E|-------------------------------------------------| 
B|-------------------------------------------------| 
G|-----------------5-5-------7-7?-x-5----5---------|  
D|------5-5---5-5--5-5--7-7--7-7?-x-5-55-5---------|  x 2 
A|-5-5--5-5---3-3--3-3--5-5--5-5?-x-3-33-3---------| 
E|-3-3--3-3----------------------------------------| 
   m m        m m       m m           mm 
 
Guitar Solo 
 
Verse 2: Waves of Mercy, waves of??????? 
  Am  E  Bm  C D 
E|---------------------------------| 
B|---------------------------------| 
G|---------------------------------|         
D|-2-------4---3-5-----------------|    x 4 
A|-0---2---2---5-7-----------------| 
E|-----0---------------------------| 
 
Guitar Solo: La la la la la la la??????????          x many times 
 

    	
fixar
fixar inscrever-se

enviado porenviado por: europeu
cifra enviadaCorrigida por: sem correções
logo top cifrasComente
ico música do artistaMúsicas deste artista
ico curtiuCurtiu?
ico destaqueDestaque
Petaxxon Comunicação Online

Cifras.com.br - Melhor e mais completo site de cifras e tablaturas do Brasil Mais de 1 milhão de acordes de músicas cadastradas desde 2003
As informações contidas no nosso site são colaborações de seus usuários e podem conter erros, sendo assim, não nos responsabilizamos sobre nenhuma destas.

close
menos
mais
close
Cor dos acordes:

Cor da letra:

close
Alinhar acordes a direita Alinhar acordes a esquerda Alinhar acordes em baixo Alinhar acordes no topo
close
  Mostrar todos os acordes Esconder acordes muito fáceis Esconder acordes fáceis Esconder acordes intermediários
redimensionar
glossário