Cifras e Tablaturas
Hinos Avulsos Ccb

Hinos Avulsos Ccb

Se Fores Tentado

Cifras Cancelar Versão de Impressão Print

Hinos Avulsos Ccb - Se Fores Tentado

Tom: C

  • 0:00 / 0:00
  			C                     G                 Am                  Em              F             C 
E|-0-------0-1-0-------------------------------------------------------------------------------0----- 
B|---1------------------3-----3----------1------1-3-1-----0------0-----------------------1--------3-1 
G|-----0------------------0-----0-----------2---------------0------0--------2------2-4--------------- 
D|---------------------------0-----0-----------2--------------2------2--------3---------------------- 
A|-3-------3-----------------------------0----------------2---------------------3--------------3----- 
E|----------------------3---------------------------------------------------1------------------------ 
  
         G                      C 
E|---------------------0-------0-------- 
B|---3-----3-1-3---------1-------1------ 
G|-----0-------------------0-------0----  
D|-------0------------------------------ 
A|---------------------3---------------- 
E|---3----------------------------------    

         C                  G                    Am            Em                  F             C 
E|-0-------0-1-0-------------------------------------------------------------------------------0----- 
B|---1------------------3-----3----------1------1-3-1-----0------0-----------------------1--------3-1 
G|-----0------------------0-----0----------2----------------0------0--------2------2-4--------------- 
D|--------------------------0-----0----------2----------------2------2--------3---------------------- 
A|-3-------3-----------------------------0----------------2---------------------3--------------3----- 
E|----------------------3---------------------------------------------------1------------------------ 
             
        C         G             C 
E|-0------------------------------------- 
B|---1---------3--1-3-------1------------ 
G|-----0-----------------------0--------- 
D|-------------------------------2------- 
A|-3------------------------3------3----- 
E|-------------3------------------------- 


Coro   
                  C                             G	 C	     F		         C 
E|-------------------------------------------------------0------------------------------------------- 
B|----------------------------1-1--------3------3-1-3--------3-1-----1-------1-1------------------1-1 
G|---0----------0-2-0-0--------------------0---------------------------2-----------4-2----0---------- 
D|------2------------------------------------0---------------------------3-------------------2------- 
A|---3-----3----------3---------3------------------------3-----------3---------3----------3----3----3 
E|---------------------------------------3----------------------------------------------------------- 

          C	     G		   C 
E|--0---------0------------------------------- 
B|-----1-----------3-1-3-------1-------------- 
G|-------0-----------------------0----0------- 
D|---------------------------------2---------- 
A|--3--------------------------3------3------- 
E|-----------------3-------------------------- 
    	

enviado porenviado por: lucicamargo
cifra enviadaCorrigida por: sem correções
logo top cifrasComente
ico música do artistaMúsicas deste artista
ico curtiuCurtiu?
ico destaqueDestaque
Petaxxon Comunicação Online

Cifras.com.br - Melhor e mais completo site de cifras e tablaturas do Brasil Mais de 1 milhão de acordes de músicas cadastradas desde 2003
As informações contidas no nosso site são colaborações de seus usuários e podem conter erros, sendo assim, não nos responsabilizamos sobre nenhuma destas.

close
menos
mais
close
Cor dos acordes:

Cor da letra:

close
Alinhar acordes a direita Alinhar acordes a esquerda Alinhar acordes em baixo Alinhar acordes no topo
close
  Mostrar todos os acordes Esconder acordes muito fáceis Esconder acordes fáceis Esconder acordes intermediários
redimensionar
glossário