Cifras e Tablaturas
Hollywood Undead

Hollywood Undead

Christmas In Hollywood

Cifras Cancelar Versão de Impressão
cifras

Hollywood Undead - Christmas In Hollywood

fixar na tela  
Exibindo: vídeo-aula ver clipes redimensionar
  
INTRO 

It's christmas in hollywood... 0:00 

e|---------------------------------------------| 
B|--11----10-----8-----------------------------| 
G|--------------------10-----------------------| 
D|---------------------------------------------| You can play this one on the verse and Chorus too! 
A|---------------------------------------------| 
D|---------------------------------------------| 

It's hanukkah in Inglewood... 0:08 

e|---------------------------------------------------------------------------| 
B|---------------------------------------------------------------------------| 
G|---------------------------------------------------------------------------| 
D|---------------------------------------------------------------------------| 
A|---------------------------------------------------------------------------| 
D|--8-8-8-8-7-7-7-7-5-5-5-5-3-3-3-3------------------------------------------| 

Ho ho ho, merry christmas! 0:16 

e|-------------------------------------------| 
B|-------------------------------------------| 
G|-------------------------------------------| 
D|--8-5-7---8-5-7---8-5-7---8-5-7------------| 
A|--------8-------8-------8-------8----------| 
D|-------------------------------------------| 

Or an octave higher at 0:16 

e|------------------------------------------------| 
B|--11-8-10----11-8-10----11-8-10----11-8-10------| 
G|----------10---------10---------10---------10---| 
D|------------------------------------------------| 
A|------------------------------------------------| 
D|------------------------------------------------| 


Chorus 0:23 

e|-------------------------------------------------------| 
B|-------------------------------------------------------| 
G|-------------------------------------------------------| 
D|--8----7----5----3-------------------------------------| 
A|--8----7----5----3-------------------------------------| 
D|--8----7----5----3-------------------------------------| 

VERSE 0:39 

e|-------------------------------------------------------| 
B|-------------------------------------------------------| 
G|-------------------------------------------------------| 
D|--8----7----5----3-------------------------------------| 
A|--8----7----5----3-------------------------------------| 
D|--8----7----5----3-------------------------------------| 

Pre-Chorus 1:25 

e|-----------------------------------------------------| 
B|-----------------------------------------------------| 
G|-----------------------------------------------------| 
D|-----------------------------------------------------| 
A|-----------------------------------------------------| 
D|--8--8--8--8--7--7--7--7--5--5--5--5--3--3--3--3-----| 

Chorus 1:33 

e|-------------------------------------------------------| 
B|-------------------------------------------------------| 
G|-------------------------------------------------------| 
D|--8----7----5----3-------------------------------------| 
A|--8----7----5----3-------------------------------------| 
D|--8----7----5----3-------------------------------------| 

verse 1:48 

e|-------------------------------------------------------| 
B|-------------------------------------------------------| 
G|-------------------------------------------------------| 
D|--8----7----5----3-------------------------------------| 
A|--8----7----5----3-------------------------------------| 
D|--8----7----5----3-------------------------------------| 

Pre-Chorus 2:34 

e|-----------------------------------------------------| 
B|-----------------------------------------------------| 
G|-----------------------------------------------------| 
D|-----------------------------------------------------| 
A|-----------------------------------------------------| 
D|--8--8--8--8--7--7--7--7--5--5--5--5--3--3--3--3-----| 

Chorus 2:42 

e|-------------------------------------------------------| 
B|-------------------------------------------------------| 
G|-------------------------------------------------------| 
D|--8----7----5----3-------------------------------------| 
A|--8----7----5----3-------------------------------------| 
D|--8----7----5----3-------------------------------------| 

BRIDGE 2:57 

e|-----------------------------------------| 
B|-----------------------------------------| 
G|-----------------------------------------| 
D|-----------------------------------------| Repeat till 3:12 
A|-----------------------------------------| 
D|--8--7--5--3-----------------------------| 

Chorus 3:12 

e|-------------------------------------------------------| 
B|-------------------------------------------------------| 
G|-------------------------------------------------------| 
D|--8----7----5----3-------------------------------------| 
A|--8----7----5----3-------------------------------------| 
D|--8----7----5----3-------------------------------------| 

END 3:58 

e|-----------------------| 
B|-----------------------| 
G|-----------------------| 
D|--8--------------------| 
A|--8--------------------| 
D|--8--------------------| 
  

top 5 | hollywood undead
top rock alternativo
Outras músicas do artista letras do(a) Hollywood Undead
Top cifras »Top artistas »
Petaxxon Comunicação Online
Cifras.com.br - Melhor e mais completo site de cifras e tablaturas do Brasil
Mais de 1 milhão de acordes de músicas cadastradas desde 2003
As informações contidas no nosso site são colaborações de seus usuários e podem conter erros, sendo assim, não nos responsabilizamos sobre nenhuma destas.
close
menos
mais
close
Cor dos acordes:

Cor da letra:

 

save
close
close
 
redimensionar