Cifras e Tablaturas
Hombres G

Hombres G

Dejad Que Las Niñas Se Acerquen a Mi

Ano: 1983
Album : Los Singles 1985-2005

Cifras Cancelar Versão de Impressão Print

Hombres G - Dejad Que Las Niñas Se Acerquen a Mi

Tom: F#

  			El requinto se toca en 3 ocasiones y siempre es el mismo: 
 
 Al Comienzo, En Medio y Al Final. 
 
          F#                   B            C#            F# 
e|----2/9-9-----9/11-9-----9/11-14-----14/16--18-16-14-14-16/9----------| 
B|----------------------------------------------------------------------| 
G|----------------------------------------------------------------------| 
 
                      B      C        F# 
e|----9/11-9-----9/11-2-----2/9-7-------9-----9/11-9--------------------| 
B|--------------------------------9-7-9---------------------------------| 
G|----------------------------------------------------------------------| 
 
           B            C#            F#                   B 
e|----9/11-14-----14/16--18-16-14-14-16-9-----9/11-9-----9/11-2---------| 
B|----------------------------------------------------------------------| 
G|----------------------------------------------------------------------| 
 
 
       C#        B          G#         F#		 
e|-----9----------7----------4----------2-------------------------------| 
B|----------------------------------------------------------------------| 
G|----------------------------------------------------------------------| 
    	
fixar
fixar inscrever-se

enviado porenviado por: Stuka18
cifra enviadaCorrigida por: sem correções
logo top cifrasComente
ico música do artistaMúsicas deste artista
ico curtiuCurtiu?
ico destaqueDestaque
Petaxxon Comunicação Online

Cifras.com.br - Melhor e mais completo site de cifras e tablaturas do Brasil Mais de 1 milhão de acordes de músicas cadastradas desde 2003
As informações contidas no nosso site são colaborações de seus usuários e podem conter erros, sendo assim, não nos responsabilizamos sobre nenhuma destas.

close
menos
mais
close
Cor dos acordes:

Cor da letra:

close
Alinhar acordes a direita Alinhar acordes a esquerda Alinhar acordes em baixo Alinhar acordes no topo
close
  Mostrar todos os acordes Esconder acordes muito fáceis Esconder acordes fáceis Esconder acordes intermediários
redimensionar
glossário