Cifras e Tablaturas
Hombres G

Hombres G

Indiana

Ano: 2006
Album : Los Singles 1985-2005
Compositor : (David Summers)

Cifras Cancelar Versão de Impressão Print

Hombres G - Indiana

Tom: G

  			Aqui les va el solo de Indiana de los Hombres G  
espero les guste 

E|----------------------------------------------- 
B|----------------------------------------------- 
G|---0--0---2--0--------------------------------- 
D|--2-----2-------------------------------------- 
A|---------------3--3--0--3---------------------- 
E|----------------------------------------------- 

E|----------------------------------------------- 
B|----------------------------------------------- 
G|---0--0---2--0--------------------------------- 
D|--2-----2--------2--0--0-------------------------- 
A|------------------------------------------- 
E|----------------------------------------------- 

E|----------------------------------------------- 
B|----------------------------------------------- 
G|---0--0---2--0--------------------------------- 
D|--2-----2-------------------------------------- 
A|---------------3--3--0--3---------------------- 
E|----------------------------------------------- 

Aqui se liga un poco 
E|----------------------------------------------- 
B|----------------------------------------------- 
G|---5--5--2--2--0--2--0------------------------- 
D|------------------------2--0--0---------------- 
A|----------------------------------------------- 
E|----------------------------------------------- 

Desde aqui es bien rapido 
E|----------------------------------------------------- 
B|-----------0--1--0--1--3-5-3-5-3-5-3-5--------------- 
G|------0--2------------------------------5--4--5------ 
D|-0--2------------------------------------------------ 
A|----------------------------------------------------- 
E|----------------------------------------------------- 

E|-2--7-7-7-7-7-7-7-7-7--9--7-7--14-14-14-14--9-7-7 
B|------------------------------------------------- 
G|------------------------------------------------- 
D|------------------------------------------------- 
A|------------------------------------------------- 
E|------------------------------------------------- 

E|----------------------------------------------- 
B|-9-11-12---9-11-12---9-11-12------------------- 
G|----------------------------------------------- 
D|----------------------------------------------- 
A|----------------------------------------------- 
E|-----------------------------------------------
    	
fixar
fixar inscrever-se

enviado porenviado por: alexribeiro
cifra enviadaCorrigida por: sem correções
logo top cifrasComente
ico música do artistaMúsicas deste artista
ico curtiuCurtiu?
ico destaqueDestaque
Petaxxon Comunicação Online

Cifras.com.br - Melhor e mais completo site de cifras e tablaturas do Brasil Mais de 1 milhão de acordes de músicas cadastradas desde 2003
As informações contidas no nosso site são colaborações de seus usuários e podem conter erros, sendo assim, não nos responsabilizamos sobre nenhuma destas.

close
menos
mais
close
Cor dos acordes:

Cor da letra:

close
Alinhar acordes a direita Alinhar acordes a esquerda Alinhar acordes em baixo Alinhar acordes no topo
close
  Mostrar todos os acordes Esconder acordes muito fáceis Esconder acordes fáceis Esconder acordes intermediários
redimensionar
glossário