Cifras e Tablaturas
Howlin Wolf

Howlin Wolf

Poor Boy

Cifras Cancelar Versão de Impressão
cifras

Howlin Wolf - Poor Boy

fixar na tela  
Exibindo: vídeo-aula ver clipes redimensionar
  
 Intro 
  Q=166(8=s8) 
  N.C.       Dm 
 4/4 
  Gtr I (El. Gtr.) 
  W          Q   E     E  E  E  E  E 
|----------|-------------------------| 
|----------|-------------------------| 
|----------|----12b14-10-12-10-------| 
|----------|-------------------12-10-| 
|----------|-------------------------| 
|----------|-------------------------| 


   Q   q   Q   q     Q   e  E  +E   E  E  E 
|-----------------|-------------------------| 
|-----10------10--|-----10------------------| 
|-----10------10--|-----10------------------| 
|-12----------10--|-12-------------10-12-10-| 
|---------12------|--------12-(12)----------| 
|-----------------|-------------------------| 


   Q   q   Q   q     Q   e  E  +E   E  E  E 
|-----------------|-------------------------| 
|-----10------10--|-----10------------------| 
|-----10------10--|-----10------------------| 
|-12----------10--|-12-------------10-12-10-| 
|---------12------|--------12-(12)----------| 
|-----------------|-------------------------| 


  A7 
   Q   q   Q   q     Q   e  E  +E   E  q 
|-----12------12--|-----12----------------| 
|-----------------|-----------------------| 
|-----12------12--|-----12----------------| 
|-----11------11--|-----11----------------| 
|-12--------------|-12-------------10-12--| 
|---------12------|--------12-(12)--------| 


  Dm                           G7 
  Q  q  Q  q    Q  q  E E q     Q   q   Q   q     Q   e  E  +E   E q 
|-------------|--------------|-----10------10--|-----10---------------| 
|----6-----6--|----6---------|-----------------|----------------------| 
|----7-----7--|----7----5----|-----10------10--|-----10---------------| 
|----7--7--7--|----7--7---7--|------9-------9--|------9---------------| 
|-5-----------|-5------------|-10--------------|-10----------------8--| 
|-------------|--------------|---------10------|--------10-(10)-10----| 


   Q   q  Q   q     Q   e  E  +E   E  E  E 
|----------------|-------------------------| 
|-----10-----10--|-----10------------------| 
|-----10-----10--|-----10------------------| 
|-12-------------|-12-------------10-12-10-| 
|----------------|--------12-(12)----------| 
|----------------|-------------------------| 


   Q   q   Q   q     Q   e  E  +E   E  E  E 
|-----------------|-------------------------|| 
|-----10------10--|-----10------------------|| 
|-----10------10--|-----10------------------|| 
|-12----------10--|-12-------------10-12-12-|| 
|---------12------|--------12-(12)----------|| 
|-----------------|-------------------------|| 


   1st - 4th Verses 
    $ 
    Dm 
     Q   q   Q   q     Q   e  E  +E   E  E  E 
||------10------10--|-----10------------------| 
||o-----10------10--|-----10------------------| 
||------10------10--|-----10------------------| 
||--12--------------|-12-------------10-12-10-| 
||o---------12------|--------12-(12)----------| 
||------------------|-------------------------| 


   Q   q   Q   q     Q   e  E  +E   E  q 
|-----10----------|------------------------| 
|-----10------10--|-----10-----------------| 
|-----10------10--|-----10-----------------| 
|-12----------10--|-12----------------10---| 
|---------12------|--------12-(12)-12------| 
|-----------------|------------------------| 


   Q   q   Q   q     Q   e  E  +E   E  E  E 
|-----10------10--|-----10------------------| 
|-----10------10--|-----10------------------| 
|-----10------10--|-----10------------------| 
|-12--------------|-12----------------------| 
|---------12------|--------12-(12)-10-10-11-| 
|-----------------|-------------------------| 


  A7 
   Q   q   Q   q     Q   e  E  +E   E  q 
|-----12------12--|-----12------------12--| 
|-----------------|-----------------------| 
|-----12------12--|-----12------------12--| 
|-----11------11--|-----11------------11--| 
|-12--------------|-12--------------------| 
|---------12------|--------12-(12)-12-----| 


  Dm 
   Q   q   Q   q     Q   e  E  +E   E  q 
|-----------------|-----------------------| 
|-----10----------|-----10----------------| 
|-----10----------|-----10----------------| 
|-12----------10--|-12-------------10-12--| 
|---------12------|--------12-(12)--------| 
|-----------------|-----------------------| 


  G7 
   Q   q   Q   q     Q   e  E  +E   E  q 
|-----10------10--|-----10------------10--| 
|-----------------|-----------------------| 
|-----10------10--|-----10------------10--| 
|------9-------9--|------9-------------9--| 
|-10--------------|-10--------------------| 
|---------10------|--------10-(10)-10-----| 


  Dm 
   Q   q   Q   q     Q   e  E  +E   E  E  E 
|-----------------|-------------------------| 
|-----10----------|-----10------------------| 
|-----10----------|-----10------------------| 
|-12----------10--|-12-------------10-10-11-| 
|---------12------|--------12-(12)----------| 
|-----------------|-------------------------| 


                   1.,D.S. 
          To Coda 
   Q   q   Q   q     Q   e  E  +E   E  E E 
|-----------------|-------------------------|| 
|-----10------10--|-----10-----------------o|| 
|-----10------10--|-----10------------------|| 
|-12----------10--|-12-------------12-12----|| 
|---------12------|--------12-(12)-------0-o|| 
|-----------------|-------------------------|| 


                          Guitar Solo 
  2. 
                           Dm 
   Q   e  E  +E   E  q      Q      Q      E  E  E  E 
|-----------------------||---------------------------| 
|-----10----------------||---------------12-10-------| 
|-----10----------------||-12b14--12b14--------12-10-| 
|-12-------------10-12--||---------------------------| 
|--------12-(12)--------||---------------------------| 
|-----------------------||---------------------------| 


   Q      E  E  E  E  E  E    Q   q   Q   q 
|--------------------------|-----------------| 
|-12b13--12-10-------------|-----10------10--| 
|-12b13--12-10-12-10-------|-----10------10--| 
|--------------------12-10-|-12----------10--| 
|--------------------------|---------12------| 
|--------------------------|-----------------| 


                                    ~~~~~~~~~~~~~ 
   Q   e  E  +E   E  E  E    Q      Q       +E    E  E  E 
|-------------------------|-------------------------------| 
|-----10------------------|----------------------10-13-10-| 
|-----10---------------10-|-12b14--12b14===(12)r----------| 
|-12-------------10-12----|-------------------------------| 
|--------12-(12)----------|-------------------------------| 
|-------------------------|-------------------------------| 


                                 A7 
   Q        E  E  Q        E E    Q   q   Q   q 
|----------10-10-------------x-|-----12------12--| 
|-13b13.5--------13b13.5--10-x-|-----11------11--| 
|----------------------------x-|-----12------12--| 
|------------------------------|-----11------11--| 
|------------------------------|-12--------------| 
|------------------------------|---------12------| 


                          Dm 
   Q   e  E  +E   Q   E    Q        H     E       E 
|-----12----------------|----------10----13b13.5-10-| 
|-----11-------------10-|-13b13.5-------------------| 
|-----12---------12-----|---------------------------| 
|-----11----------------|---------------------------| 
|-12-----12-(12)--------|---------------------------| 
|-----------------------|---------------------------| 


                               G7 
   Q        E  E  +Q    E  E    Q      E  E  E  E  E  E 
|-13b13.5-----10-(10)--------|------------------------------| 
|----------13----------13-10-|------------------------------| 
|----------------------------|-12b14--12-10-12-10----12b14==| 
|----------------------------|--------------------12--------| 
|----------------------------|------------------------------| 
|----------------------------|------------------------------| 


                                    Dm 
                                            ~~~~~~~~~~~~~ 
         |----3-----| 
   +Q    S  +S   E  E  E  E  E  E    Q      Q       +E    e E  E 
|---------------------------------|----------------------------------| 
|---------------------------------|----------------------10---13b15==| 
|-(12)--12r(12)p10----10-12-10----|-12b14--12b14===(12)r-------------| 
|------------------12----------12-|----------------------------------| 
|---------------------------------|----------------------------------| 
|---------------------------------|----------------------------------| 


   +E   +E   E  E  E  E  a  E E    Q   q   Q   q 
|-------------------------------|------------------| 
|-(13)r(13)-10------------------|-----10------10---| 
|--------------12-10----10h12---|-----10------10---| 
|--------------------12---------|-12----------10---| 
|-------------------------------|---------12-------| 
|-------------------------------|------------------| 


                          Outro 
           D.S. al Coda & 
                           Dm 
   Q   e  E  +E   E  q      Q   e  E  +E   E  q       Q   q   Q   q 
|-----------------------||-----------------------||------10------10--| 
|-----10----------------||-----10----------------||o-----10------10--| 
|-----10----------------||-----10----------------||------10------10--| 
|-12-------------10-12--||-12----------------10--||--12--------------| 
|--------12-(12)--------||--------12-(12)-12-----||o---------12------| 
|-----------------------||-----------------------||------------------| 


   Q   e  E  +E   E  q     Q   q   Q   q     Q   e  E  +E   E  q   3x 
|-----------------------|-----10------10--|------------------------|| 
|-----10----------------|-----10------10--|-----10----------------o|| 
|-----10----------------|-----10------10--|-----10-----------------|| 
|-12----------------10--|-12--------------|-12----------------10---|| 
|--------12-(12)-12-----|---------12------|--------12-(12)-12-----o|| 
|-----------------------|-----------------|------------------------||  
  

cifra enviadasem correções
enviado porenviada por:aman_claudino
top 5 | howlin wolf
top rock'n roll
Outras músicas do artista letras do(a) Howlin Wolf
Top cifras »Top artistas »
Petaxxon Comunicação Online
Cifras.com.br - Melhor e mais completo site de cifras e tablaturas do Brasil
Mais de 1 milhão de acordes de músicas cadastradas desde 2003
As informações contidas no nosso site são colaborações de seus usuários e podem conter erros, sendo assim, não nos responsabilizamos sobre nenhuma destas.
close
menos
mais
close
Cor dos acordes:

Cor da letra:

 

save
close
close
 
redimensionar