Cifras e Tablaturas
Hozier

Hozier

My Love Will Never Die

Cifras Cancelar Versão de Impressão
cifras

Hozier - My Love Will Never Die

fixar na tela  
Exibindo: vídeo-aula ver clipes redimensionar

Tom:

  
Intro 

e|-----------------------|-------0--------------------------| 
B|----3-----0------------|-----3---0------------------------| 
G|-4--4-4-2-0h2-0---0h2~-|-2/4-----0h2-0--------------------| 
D|----------------2------|---------------2-0h2-0------------| 
A|-----------------------|-----------------------2----------| 
E|-----------------------|-------------------------3h5~p3p0-| 

e|----------------------|-----------------------| 
B|-0----0----0----0h1---|-0----0----0----0h1----| 
G|----------------0h2---|----------------0h2----| 
D|-0h2--0h2--0h2------0-|-0h2--0h2--0h2-------0-| 
A|----------------0-----|----------------0------| 
E|-0----0----0----------|-0----0----0-----------| 

e|----0---3----------------------|----3/5-3------------------------| 
B|-0--3/5---5p0------------0h1---|-0--------5---------------0h1----| 
G|-0------------4\2p0------0h2---|-0----------4\2-0-0h2-0---0h2----| 
D|---------------------0h2-----0-|------------------------2------0-| 
A|-------------------------0-----|--------------------------0------| 
E|-0------0-----0----------------|-0--------0-------0--------------| 

verse 1 

You've done         me wrong.                   For  a   long, long time.               But after 
e|--------------------|-----------------------|--------------------|--------3-------------------| 
B|-0----0----0----0h1-|-0----0----0----0h1----|-0----0----0----0h1-|-1--3/5---5-----------------| 
G|----------------0h2-|----------------0h2----|----------------0h2-|-2----------0h2p0-----------| 
D|-0h2--0h2--0h2------|-0h2--0h2--0h2-------0-|-0h2--0h2--0h2------|------------------2-0h2p0---| 
A|----------------0---|----------------0------|----------------0---|-0--0-------0-------0-------| 
E|-0----0----0--------|-0----0----0-----------|-0----0----0--------|--------------------------3-| 

   all               you've done                I never changed my mind. 
e|-----------------------|-----------------------|--------------------|--------3-5-5p3-----------| 
B|-0----0----0----0h1----|-0----0----0----0h1----|-0----0----0----0h1-|-1--3/5---------5---------| 
G|----------------0h2----|----------------0h2----|----------------0h2-|-2----------------0h2p0---| 
D|-0h2--0h2--0h2-------0-|-0h2--0h2--0h2-------0-|-0h2--0h2--0h2------|------------------------2-| 
A|----------------0------|----------------0------|----------------0---|-0--0-------0-----0-------| 
E|-0----0----0-----------|-0----0----0-----------|-0----0----0--------|--------------------------| 

Chorus 1 

Honey please,    try to love me.     Honey please,     honey try 
e|---------------------|-----------------|-0~~----------------|---------|   
B|----0~~--T-----T-----|-------T----T----|-0~~---T----T-------|--T----T-|   
G|---------A-----A-----|-------A----A----|-0~~---A----A-------|--A----A-|   
D|----2~~--P-----P-----|-------P----P----|-2~~---P----P-------|--P----P-|   
A|---------!-----!-----|-------!----!----|-2~~---!----!-------|--!----!-|   
E|----0~~--------------|-----------------|-0~~----------------|---------|   
  (There is a little more to the tapping in this section, but 
  this is the general beat placement in relation to the lyrics) 

My love                             will never           die 
e|---5-5---5-5---5-5---5-0-|--------3-5------------------|---------------------| 
B|---4-4---4-4---4-4---4-0-|----3/5----------------------|-0---0h1----0--0h1---| 
G|-------------------------|------------4\2p0-2-0h2p0----|-----0h2-------0h2---| 
D|-------------------------|--------------------------2~-|-2--------0-2------0-| 
A|-2-----2-----2-----2-----|-0--0-------0-------0--------|-----0---------0-----| 
E|-------------------------|-----------------------------|-0----------0--------| 

Instrumental 

                                           Hmmm      hmmm hmmm 
e|--------------0------3---------|---3-3---3-3---2-2---2-2-|---3-3---3-3---3-3---3-0-| 
B|-0--0h1----0--3/5-5--5-3-------|---5-5---5-5---3-3---3-3-|---5-5---5-5---5-5---5-0-| 
G|----0h2------------------4p2p0-|-------------------------|-------------------------| 
D|-2-------0-2-------------------|-------------------------|-------------------------| 
A|----0--------------------------|-------------------------|-------------------------| 
E|-0---------0---------0---------|-0-----0-----0-----0-----|-0-----0-----0-----0-----| 

              Hmmm  hmmm      hmmm 
e|--3-7-7---7-7---2-2---2-2/3-|---3-3---3-3---3-3---3-0-|--------3-------------------| 
B|--5-8-8---8-8---3-3---3-3/5-|---5-5---5-5---5-5---5-0-|-1~-3/5---5-----------------| 
G|----------------------------|-------------------------|-2~---------4\2p0-2-0h2p0---| 
D|----------------------------|-------------------------|--------------------------2-| 
A|----------------------------|-------------------------|-0~-0-------0-------0-------| 
E|--0-----0-----0-----0-------|-0-----0-----0-----0-----|----------------------------| 

                                               Hmmm      hmmm hmmm 
e|----------3-5----------------------|-----3-3-3-3---2-2---2-2-|---3-3---3-3---3-3---3-0-| 
B|-0h1~-3/5-----0----------0---------|-0---5-5-5-5---3-3---3-3-|---5-5---5-5---5-5---5-0-| 
G|-0h2~---------0h2p0---0--0h2p0---0-|-------------------------|-------------------------| 
D|--------------------2----------2---|-0h2---------------------|-------------------------| 
A|-0~---0-------0----------0---------|-------------------------|-------------------------| 
E|-----------------------------------|-0-----0-----0-----0-----|-0-----0-----0-----0-----| 

e|-----------------------|--------3--------------------------|----3/5-3-5-5/7-5-3------------| 
B|-0----0----0----0h1----|-0--3/5---5-----------------0h1----|-0------------------5---0h1----| 
G|----------------0h2----|-0----------4\2p0-2-0h2p0---0h2----|-0----------------------0h2----| 
D|-0h2--0h2--0h2-------0-|--------------------------2------0-|----------------------0------0-| 
A|----------------0------|----------------------------0------|------------------------0------| 
E|-0----0----0-----------|-0------0-----------0--------------|-0--------0-------0------------| 

e|-------------------------------| 
B|-0----------------------0h1----| 
G|------------------------0h2----| 
D|-0h2--0h2p0h2p0h2p0h2~-------0-| 
A|------------------------0------| 
E|-0-----------------------------| 
        ^(This note is plucked very hard to get the 'twang' sound 
          Repeatedly hammer-on and pull-off to create the trill) 

verse 2 

      Flowers,      flowers grow               Where I'm laid      to rest.                     Honey 
e|----------------------|-----------------------|----------------------|---------3-------------------| 
B|-0----0----0----0h1---|-0----0----0----0h1----|-0------0----0----0h1-|-1-0-3/5---5-----------------| 
G|----------------0h2---|----------------0h2----|------------------0h2-|-2-----------4\2p0-2-0h2p0---| 
D|-0h2--0h2--0h2------0-|-0h2--0h2--0h2-------0-|-0h2----0h2--0h2------|---------------------------2-| 
A|----------------0-----|----------------0------|------------------0---|-0---0-------0-------0-------| 
E|-0----0----0----------|-0----0----0-----------|-0------0----0--------|-----------------------------| 

   Pick             a blossom                      And hold it, hold it to your breast.       Honey you'll 
e|-----------------------|-----------------------|-----------------------|--------3-5-5/7-5-3---------| 
B|-0----0----0----0h1----|-0----0----0----0h1----|-0----0----0----0h1----|-1--3/5---------------------| 
G|----------------0h2----|----------------0h2----|----------------0h2----|-2------------------4\2p0---| 
D|-0h2--0h2--0h2-------0-|-0h2--0h2--0h2-------0-|-0h2--0h2--0h2-------0-|--------------------------2-| 
A|----------------0------|----------------0------|----------------0------|-0--0-------0-------0-------| 
E|-0----0----0-----------|-0----0----0-----------|-0----0----0-----------|----------------------------| 

Chorus 2 

   Know,      that's my love.     Bursting loud        from inside 
e|-0----------------|--------------------|-0~~----------------|-----------| 
B|-0~~--T-----T-----|--------T----T------|-0~~---T----T-------|----T----T-| 
G|-0----A-----A-----|--------A----A------|-0~~---A----A-------|----A----A-| 
D|-2~~--P-----P-----|--------P----P------|-2~~---P----P-------|----P----P-| 
A|-2----!-----!-----|--------!----!------|-2~~---!----!-------|----!----!-| 
E|-0~~--------------|--------------------|-0~~----------------|-----------| 

 My love                                                             Oh my love, my love 
e|----5-5---5-5---5-5---5-0-|-----------3-5-3h5-3-----------|---5-5---5-5---5-5---5-0-| 
B|----4-4---4-4---4-4---4-0-|-----0-3/5-----------5---------|---4-4---4-4---4-4---4-0-| 
G|--------------------------|-----------------------4\2p0---|-------------------------| 
D|--------------------------|-----------------------------2-|-------------------------| 
A|--2-----2-----2-----2-----|-0~----0-------0-------0-------|-2~----2-----2-----2-----| 
E|--------------------------|-------------------------------|-------------------------| 

                              Will never die 
e|---0---3---------------------------|-------------0---------|-0---------------------0--------0~-| 
B|---3/5---5-----------------0h1p0---|-0----0h1----0--0h1----|-0--0h1------------0-----------0~--| 
G|-----------4\2p0-2-0h2p0---0h2p0---|------0h2----0--0h2----|-0--0h2----------0---0---0----0~---| 
D|-------------------------2-------2-|-0h2-------0-2-------0-|-2-------0-----2-------------2~----| 
A|-0---------0-------0-------0-------|------0------2--0------|-2--0--------2--------------2~-----| 
E|-----------------------------------|-0-----------0---------|-0---------0---------------0~------| 


************************************ 

| h   Hammer-on 
| p   Pull-off 
| /   Slide up 
| \   Slide down 
| ~   Vibrato/Let ring 

************************************ 
  

top 5 | hozier
top rock'n roll
Outras músicas do artista letras do(a) Hozier
Top cifras »Top artistas »
Petaxxon Comunicação Online
Cifras.com.br - Melhor e mais completo site de cifras e tablaturas do Brasil
Mais de 1 milhão de acordes de músicas cadastradas desde 2003
As informações contidas no nosso site são colaborações de seus usuários e podem conter erros, sendo assim, não nos responsabilizamos sobre nenhuma destas.
close
menos
mais
close
Cor dos acordes:

Cor da letra:

 

save
close
close
 
redimensionar