Cifras e Tablaturas
Hunter Hayes

Hunter Hayes

Young And In Love

Cifras Cancelar Versão de Impressão
cifras

Hunter Hayes - Young And In Love

fixar na tela  
Exibindo: vídeo-aula ver clipes redimensionar
  
Verse 
e|---------------------------------------------------------------------------| 
B|-----1--------1--------1-------1--------1--------1--------1--------1-------| 
G|---0---0----0---0----0---0---0---0----0---0----0---0----0---0----0---0-----| 
D|------------------------------------0--------0--------0--------0-----------| 
A|-3---------3-------3-------3-----------------------------------------------| 
E|---------------------------------------------------------------------------| 

e|---------------------------------------------------------------------------| 
B|-----1-------1--------1-------1---------1---------1--------1--------1------| 
G|---0---0---0---0----0---0---0---0-----0---0-----0---0----0---0----0---0----| 
D|---------------------------------------------------------------------------| 
A|------------------------------------3--------3---------3--------3----------| 
E|-1--------1--------1-------1-----------------------------------------------| 

e|---------------------------------------------------------------------------| 
B|-----1--------1--------1-------1--------1--------1--------1--------1-------| 
G|---0---0----0---0----0---0---0---0----0---0----0---0----0---0----0---0-----| 
D|------------------------------------0--------0--------0--------0-----------| 
A|-3---------3-------3-------3-----------------------------------------------| 
E|---------------------------------------------------------------------------| 


e|---------------------------------------------------------------------------| 
B|-----1-------1--------1-------1---------1---------1--------1--------1------| 
G|---0---0---0---0----0---0---0---0-----0---0-----0---0----0---0----0---0----| 
D|---------------------------------------------------------------------------| 
A|------------------------------------3--------3---------3--------3----------| 
E|-1--------1--------1-------1-----------------------------------------------| 

e|---------------------------------------------------------------------------| 
B|-----1--------1--------1-------1--------1--------1--------1--------1-------| 
G|---0---0----0---0----0---0---0---0----0---0----0---0----0---0----0---0-----| 
D|------------------------------------0--------0--------0--------0-----------| 
A|-3---------3-------3-------3-----------------------------------------------| 
E|---------------------------------------------------------------------------| 

e|---------------------------------------------------------0-----------------| 
B|-----1--------1--------1-------1---------1---------1-----1-----------------| 
G|---0---0----0---0----0---0---0---0-----0---0-----0---0---0-----------------| 
D|---------------------------------------------------------2-----------------| 
A|------------------------------------3--------3-----------3-----------------| 
E|-1--------1--------1-------1-----------------------------x-----------------| 

Chorus 
      F       C       Am       G 
e|----1-------0-------0--------3---------------------------------------------| 
B|----1-------1-------1--------3---------------------------------------------| 
G|----2-------0-------2--------0---------------------------------------------| x4 
D|----3-------2-------2--------0---------------------------------------------| 
A|----3-------3-------0--------x---------------------------------------------| 
E|----1-------x-------x--------3---------------------------------------------| 

verse 2 

e|---------------------------------------------------------------------------| 
B|-----1--------1--------1-------1--------1--------1--------1--------1-------| 
G|---0---0----0---0----0---0---0---0----0---0----0---0----0---0----0---0-----| 
D|------------------------------------0--------0--------0--------0-----------| 
A|-3---------3-------3-------3-----------------------------------------------| 
E|---------------------------------------------------------------------------| 

e|---------------------------------------------------------------------------| 
B|-----1-------1--------1-------1---------1---------1--------1--------1------| 
G|---0---0---0---0----0---0---0---0-----0---0-----0---0----0---0----0---0----| 
D|---------------------------------------------------------------------------| 
A|------------------------------------3--------3---------3--------3----------| 
E|-1--------1--------1-------1-----------------------------------------------| 

e|---------------------------------------------------------------------------| 
B|-----1--------1--------1-------1--------1--------1--------1--------1-------| 
G|---0---0----0---0----0---0---0---0----0---0----0---0----0---0----0---0-----| 
D|------------------------------------0--------0--------0--------0-----------| 
A|-3---------3-------3-------3-----------------------------------------------| 
E|---------------------------------------------------------------------------| 

e|---------------------------------------------------------------------------| 
B|-----1-------1--------1-------1---------1---------1--------1--------1------| 
G|---0---0---0---0----0---0---0---0-----0---0-----0---0----0---0----0---0----| 
D|---------------------------------------------------------------------------| 
A|------------------------------------3--------3---------3--------3----------| 
E|-1--------1--------1-------1-----------------------------------------------| 
   C 
e|-0-------------------------------------------------------------------------| 
B|-1-------------------------------------------------------------------------| 
G|-0-------------------------------------------------------------------------| 
D|-2-------------------------------------------------------------------------| 
A|-3-------------------------------------------------------------------------| 
E|-x-------------------------------------------------------------------------| 

Chorus 
      F       C       Am       G 
e|----1-------0-------0--------3---------------------------------------------| 
B|----1-------1-------1--------3---------------------------------------------| 
G|----2-------0-------2--------0---------------------------------------------| x4 
D|----3-------2-------2--------0---------------------------------------------| 
A|----3-------3-------0--------x---------------------------------------------| 
E|----1-------x-------x--------3---------------------------------------------| 

Outro 
e|---------------------------------------------------------------------------| 
B|-----1--------1--------1-------1--------1--------1--------1--------1-------| 
G|---0---0----0---0----0---0---0---0----0---0----0---0----0---0----0---0-----| 
D|------------------------------------0--------0--------0--------0-----------| 
A|-3---------3-------3-------3-----------------------------------------------| 
E|---------------------------------------------------------------------------| 
                       C 
e|---------------------0-----------------------------------------------------| 
B|-----1--------1------1-----------------------------------------------------| 
G|---0---0----0---0----0-----------------------------------------------------| 
D|---------------------2-----------------------------------------------------| 
A|---------------------3-----------------------------------------------------| 
E|-1--------1----------x-----------------------------------------------------| 



************************************ 

| x   Dead note 

************************************ 
  

cifra enviadasem correções
enviado porenviada por:hebealmeida
top 5 | hunter hayes
top country
Outras músicas do artista letras do(a) Hunter Hayes
Top cifras »Top artistas »
Petaxxon Comunicação Online
Cifras.com.br - Melhor e mais completo site de cifras e tablaturas do Brasil
Mais de 1 milhão de acordes de músicas cadastradas desde 2003
As informações contidas no nosso site são colaborações de seus usuários e podem conter erros, sendo assim, não nos responsabilizamos sobre nenhuma destas.
close
menos
mais
close
Cor dos acordes:

Cor da letra:

 

save
close
close
 
redimensionar