Cifras e Tablaturas
Hunters And Collectors
Cifras Cancelar Versão de Impressão Print

Hunters And Collectors - Blind Eye

Tom: Bm

  			 Bm 
|--7---------------|--7--------------|--7--------------|--10---------------| 
|--7---------------|--10-------------|--8--------------|--8----------------| 
|--7---------------|--7--------------|--7--------------|--7----------------| 
|--9---------------|--9--------------|--9--------------|--9----------------| 
|------------------|-----------------|-----------------|-------------------| 
|------------------|-----------------|-----------------|-------------------| 
 
 
When success is on your mind but true direction is missing 
You know the gods have lied but you're still smitten 
By the stars in your eyes I can tell you know where you are 
Smile sweetly and you'll be forgiven 
 
|-----2---2--2-----|-----2--2--2-----|-----0---0---0---|---------------| 
|------------------|---0-------------|-----------------|-------3-------| 
|---4---4--4--4----|-0----0--0--0----|---3---3---3-----|---3-4---4-2---| 
|-4----------------|-----------------|-4---------------|-4-------------| 
|------------------|-----------------|-----------------|---------------| 
|------------------|-----------------|-----------------|---------------| 
 
               Bm             Bm/G 
You're almost free,  almost free to come and go 
          Bm                            Em7 
that city room for ambitious prisoner 
 
 
      D                           A 
Walk away   Don't take no for an answer 
        Bm 
Turn a blind eye to it all 
              G                Em 
Let sleeping dogs lie down in Queens Way 
 
riff x 2 
 
Like a bulldozer chasin' butterflies 
Down sad english streets with wonder 
Over sleeping bodies you step lightly 
All the snow on the ground lets you pass by without a sound 
One last look before you disappear 
 
Chorus 
 
Inst = acc. verse + dbl 2nd    /    elec for 1 chorus 
|------------------|-----------------|-----------------|-------------------| 
|------------------|-----------------|-----------------|-------------------| 
|------------------|-----------------|-----------------|-------------------| 
|------------------|-----------------|-----------------|-------------------| 
|------------------|-----------------|-----------------|-------------------| 
|------------------|-----------------|-----------------|-------------------| 
 
Chorus 
Chorus 
riff x 1 
Repeat  Bm until  END 
 
Transcribed by Cam Taylor  

		
		
fixar
fixar inscrever-se

enviado porenviado por: anônimo
cifra enviadaCorrigida por: sem correções
logo top cifrasComente
ico música do artistaMúsicas deste artista
ico curtiuCurtiu?
ico destaqueDestaque
Petaxxon Comunicação Online

Cifras.com.br - Melhor e mais completo site de cifras e tablaturas do Brasil Mais de 1 milhão de acordes de músicas cadastradas desde 2003
As informações contidas no nosso site são colaborações de seus usuários e podem conter erros, sendo assim, não nos responsabilizamos sobre nenhuma destas.

close
menos
mais
close
Cor dos acordes:

Cor da letra:

close
Alinhar acordes a direita Alinhar acordes a esquerda Alinhar acordes em baixo Alinhar acordes no topo
close
  Mostrar todos os acordes Esconder acordes muito fáceis Esconder acordes fáceis Esconder acordes intermediários
redimensionar
glossário