Cifras e Tablaturas
Hymn

Hymn

To God Be The Glory

Cifras Cancelar Versão de Impressão
cifras

Hymn - To God Be The Glory

fixar na tela  
Exibindo: vídeo-aula ver clipes redimensionar

Tom:

  
3/4 Time 


    Roll... 
E|-----------|-------------------|-------------------| 
B|-----------|-----------------0-|--1-----------1----| 
G|--------0--|--0-----0-----2----|--------0----------| 
D|-----3-----|-----2-----2-------|-----2-----2-----2-| 
A|-----------|--3----------------|--3-----------3----| 
E|--3--------|-------------------|-------------------| 

E|-------------------|--0-----------0----|--1-----------1----| 
B|--3-----------3----|--------1----------|--------1----------| 
G|--------0----------|-----0-----0-----0-|-----2-----2-----2-| 
D|-----0-----0-----0-|-------------------|--3-----------3----| 
A|-------------------|--3-----------3----|-------------------| 
E|--3-----------3----|-------------------|-------------------| 

E|--0-----------0----|--0----------------|-------------------| 
B|--------1----------|--------3----------|--3----------------| 
G|-----0-----0-------|-----2-----2--2----|--------0-----0----| 
D|-------------------|--0----------------|-----0-----0--3----| 
A|--3----------------|-------------------|-------------------| 
E|-------------------|--------------2----|--3-----------3----| 

E|-------------------|-------------------|-------------------| 
B|-----------------0-|--1-----------1----|--3-----------3----| 
G|--0-----0-----2----|--------0----------|--------0----------| 
D|-----2-----2-------|-----2-----2-----2-|-----0-----0-----0-| 
A|--3----------------|--3-----------3----|-------------------| 
E|-------------------|-------------------|--3-----------3----| 

E|--0-----------0----|--3-----1----------|-------------------| 
B|--------1----------|--------------3----|--1-----0-----1----| 
G|-----0-----3-------|-----2-----2-------|--------------0----| 
D|-------------------|--3----------------|-----2--0--0-------| 
A|--3----------------|-------------------|-------------------| 
E|-------------------|-------------------|--3----------------| 

E|--0-----0----------|--------------0--0-|-3-----------0--0--| 
B|--------------3----|--1-----------1--1-|-1-----1-----1--1--| 
G|-----0--0--0-----0-|--------0-----0--0-|-0--0-----0--0--0--| 
D|--------------0----|-----2-----2-------|-------------------| 
A|-------------------|--3-----------3----|-3-----------3-----| 
E|--3----------------|-------------------|-------------------| 

E|--3-----------3--0-|----------0--|-----------------0-| 
B|--1-----1----------|--1---3---1--|--3-----------3--3-| 
G|-----0-----0-------|--0---0---0--|--0-----0-----0----| 
D|-------------------|--2---0------|-----0-----0-------| 
A|--3----------------|-------------|-------------------| 
E|-------------------|-------------|--3-----------3----| 

E|--1--------------0-|--1---------------1-|--3---3---1-| 
B|--3-----3-----3--3-|--3------3-----3----|--1---1---0-| 
G|-----0-----0--0----|------0-----0-------|--0---0---0-| 
D|-------------------|--------------------|--2---2---0-| 
A|-------------------|--------------------|------------| 
E|--3-----------3----|--3-----------------|------------| 

E|--0----------------| 
B|--1----------------| 
G|--0-----0-----0----| 
D|-----2-----2-----2-| 
A|--3-----------3----| 
E|-------------------| 

E|-------------------|-------------------|-------------------| 
B|-----------------0-|--1-----------1----|--3-----------3----| 
G|--0-----0-----2----|--------0----------|--------0----------| 
D|-----2-----2-------|-----2-----2-----2-|-----0-----0-----0-| 
A|--3----------------|--3-----------3----|-------------------| 
E|-------------------|-------------------|--3-----------3----| 

E|--0-----------0----|--3-----1----------|-------------------| 
B|--------1----------|--------------3----|--1-----0-----1----| 
G|-----0-----3-------|-----2-----2-------|--------------0----| 
D|-------------------|--3----------------|-----2--0--0-------| 
A|--3----------------|-------------------|-------------------| 
E|-------------------|-------------------|--3----------------| 

E|--0-----0----------|-------------------|-------------------| 
B|--------------3----|--1-----------1----|-------------1-----| 
G|-----0--0--0-----0-|--------0--------0-|-------0--------0--| 
D|--------------0----|-----2-----2-------|----2-----2--------| 
A|-------------------|--3----------------|-3-----------------| 
E|--3----------------|-------------------|-------------------| 
       
E|-------------------| 
B|-----------1-------| 
G|--------0----------| 
D|-----2-------------| 
A|--3----------------|  <----  Roll 
E|-------------------| 
  

top 5 | hymn
top gospel
Outras músicas do artista letras do(a) Hymn
Top cifras »Top artistas »
Petaxxon Comunicação Online
Cifras.com.br - Melhor e mais completo site de cifras e tablaturas do Brasil
Mais de 1 milhão de acordes de músicas cadastradas desde 2003
As informações contidas no nosso site são colaborações de seus usuários e podem conter erros, sendo assim, não nos responsabilizamos sobre nenhuma destas.
close
menos
mais
close
Cor dos acordes:

Cor da letra:

 

save
close
close
 
redimensionar